» » »

Dead City Tabs (ver.1)

Artists:  A B C D E F G H I J K L M N O P Q R S T U V W X Y Z # 

Dead City Tabs (ver.1)

Washya
Rating:
0/5 (0 votes)
Tabs too difficult? Try these video lessons and learn fast.
                -------------------------------------------------------------------------------
-------------------------------------------------------------------------------
Tuning: Standard (ebgDAE)
Intro (very heavy)
e|-----------------------------------------|
b|-----------------------------------------|
g|-----------------------------------------|
D|-------------5---------3-----------------|
A|-222-22-2222-3----7----1----4---5----2-3-|
E|-000-00-0000---00-5-00---00-2-0-3-00-0-1-|
PM ... .. ....   ..   ..   ..   .   .. 

Main Riff/Chorus
e|----------------------------------------|
b|----------------------------------------|
g|----------------------------------------|
D|---------------------77-9---------------|
A|-22-3-4-3-5-4-2-22-3-55-7-9-7-777-4-5-7-|
E|-00-1-2-1-3-2-0-00-1------7-5-555-6-3-5-|
PM ..             ..            

Verses
e|------------------------------------|
b|------------------------------------|
g|------------------------------------|
D|-5-----6-----7-----8----------------|
A|---3-----5-----5-----7---3-333-3/5--|
E|-----0-----0-----0-----0-1-111-1/3--|
PM . . . . . . . . . . . .           
 
            
Tabs too difficult? Try these video lessons and learn fast.


comments powered by Disqus
↑ Back to top | Tablatures and chords are parodies/interpretations of the original songs. You may use it for private study, scholarship, research or language learning purposes only