» » »

Washya, Dead Bodies Tabs (ver.1)

Artists:  A B C D E F G H I J K L M N O P Q R S T U V W X Y Z # 

Dead Bodies Tabs (ver.1)

Washya Tabs
 Rating:
4/5 (4 votes)
Dead Bodies lessons Tabs too difficult? Try these video lessons and learn fast
1
                -----------------------------------------------------------------------------
-----------------------------------------------------------------------------
Tuning: Standard (ebgDAE)
Intro
e|------------------------------------------------------------------------|
b|------------------------------------------------------------------------|
g|------------------------------------------------------------------------|
D|-------------------------------------2h3-------------3h4p3--------------|
A|---------------------------------2h3-------------3h5-------55555-7777-2-|
E|-0-0-0-0-0-0-0-0-0-0-0-0-0-0-0-0---------0-0-0-0-----------33333-5555-0-|
PM * * * * * * * * * * * * * * * *         * * * *

Verses
e|-----0-----------------3-------------0---------0-------------0-------|
b|-------0------3----------3-------------0---------3p2-----------0-----|
g|----------------0----------0-----3-----------2-----------1-------3-2-|
D|---4-------4--------4--------------4-------2---------------0-----3-2-|
A|-2-------2--------2------------4---------4-------------2---------1-0-|
E|-----------------------------2-----------------------3---------------|

Chorus
e|---------------------------------------|
b|---------------------------------------|
g|---------------------------------------|
D|-------7-----5-5-7-----3-8\7-----------|
A|-5-----5-----3-3-5-----1-6\5-5-5-5/7-7-|
E|-3-0h2---0h2-------3p2-------3-3-3/5-5-|
PM   ***   ***       ***  
            
Submit corrections

comments powered by Disqus
↑ Back to top | Washya Tabs for Dead Bodies. Lyrics for acoustic guitar and electric guitar. 1 Tablatures and chords are parodies/interpretations of the original songs. You may use it for private study, scholarship, research or language learning purposes only