» » »

Washya, Darkest Hour Tabs (ver.1)

Artists:  A B C D E F G H I J K L M N O P Q R S T U V W X Y Z # 

Darkest Hour Tabs (ver.1)

Washya Tabs
 Rating:
4/5 (4 votes)
Darkest Hour lessons Tabs too difficult? Try these video lessons and learn fast
1
                
Tuning: Drop D
Intro (play Fast) (Rhythm Guitar)
e|------------------------------------------------------------------|
B|------------------------------------------------------------------|
G|------------------------------------------------------------------|
D|-000000000000--------------333333333333---------------------------|
A|--------------222222222222--------------000000000000-111111111111-|
D|------------------------------------------------------------------|
pm ................................................................

Intro (Lead Guitar)
e|---------------------------------22b-22b-22b~-|
B|---------------------------------22b-22b-22b~-|
G|------------------------19b~------------------|
D|----9~----12~----15~--------------------------|
A|----------------------------------------------|
D|-00---000----00-----000-----0000--------------|

Verses (Rhythm Guitar)
e|-------------------------------------------------------------------|
B|-------------------------------------------------------------------|
G|-------------------------------------------------------------------|
D|-------------------------------------------------------------------|
A|-00000000----------------------1111111117777777777-4444444---------|
D|----------33333333333322222222-----------------------------0000000-|
pm .................................................................

Verses (Lead Guitar)
e|---------------------9p6h7p6~----------------------------------7p4h5p4~-|
B|------------------------------9p6h7p6~----------------------------------|
G|---9p6h7p6~-------------------------------------------------------------|
D|------------9p6h7p6~---------------------------------12p8h9p8~----------|
A|------------------------------------------12p9h10p9~--------------------|
D|-0-------------------------------------0--------------------------------|
pm .                                     . 

Chorus (Rhythm Guitar)
e|------------------------------------------------------------------------|
B|------------------------------------------------------------------------|
G|------------------------------------------------------------------------|
D|-2--------4---------1-----------3---------------------111-----320-333---|
A|-2--------4---------1-----------3-------------320-320-111-320-----333---|
D|-22222222244444444441111111111113333333333333---------111---------333---|
pm  ........ ......... ........... ............         ...         ... 


Guitar Solo (Rhythm Guitar)
e|---------------------------------------|
B|---------------------------------------|
G|-4-x-x-x-x-4---------------------------|
D|-4-x-x-x-x-4------------------764------|
A|-2-x-x-x-x-2-3333333777777764-----76---|
D|-------------33333337777777----------4-| play until solo ends
pm             ..........................

Guitar Solo (Lead Guitar)
e|-19b~-19h20p17h18h20p18p17h18p17p15h17h18hp15p14h16h17p16-----------|
B|----------------------------------------------------------15-14-----|
G|----------------------------------------------------------------12~-|
D|--------------------------------------------------------------------|
A|--------------------------------------------------------------------|
D|--------------------------------------------------------------------|


e|-------------------------------------------------12h13h15p13p12h13p12p10-|
B|----------------------------------------------13-------------------------|
G|-12b-10----10-12b-10----10-12b-10----12h13h15----------------------------|
D|-12b----12----12b----12----12b----12-------------------------------------|
A|-------------------------------------------------------------------------|
D|-------------------------------------------------------------------------|


e|-10h12p10p9h10p9p7---9---------------------------------------------|
B|-------------------7---9-7---------------9-------------------------|
G|---------------------------6-9-------9-7---7-----------------------|
D|-------------------------------7-9-7---------9-9------7---9-7------|
A|-------------------------------------------------9-9b---9-----9----|
D|----------------------------------------------------------------7--|


e|----------------------------------------------------------------------|
B|----------------------------------------------------------------------|
G|----------------------------------------------------------------------|
D|----------------------------------------------------------------------|
A|---------------8h9h11-8h9h11-----------------10h11h13-10h11h13--------|
D|-7h8h10-7h8h10---------------9h10h12-9h10h12--------------------------|


e|-------------------------------------------------------------------------|
B|-------------------------------------------------------------------------|
G|-------------------------------------------------------13h14h16----------|
D|-------------------------------------12h13h15-12h13h15----------13h14h16-|
A|-------------------12h13h15-12h13h15-------------------------------------|
D|-11h12h14-11h12h14-------------------------------------------------------|

e|------------------------------------------------------------------22-22~-|
B|---------------------------------------------------------16h18h20--------|
G|-----------14h15h17----------14h15h17-----------15h16h18-----------------|
D|-13h14h16-----------14h15h17-----------15h16h18--------------------------|
A|-------------------------------------------------------------------------|
D|-------------------------------------------------------------------------|
            
Submit corrections

comments powered by Disqus
↑ Back to top | Washya Tabs for Darkest Hour. Lyrics for acoustic guitar and electric guitar. 1 Tablatures and chords are parodies/interpretations of the original songs. You may use it for private study, scholarship, research or language learning purposes only