» » »

Washya, Cry My Darling Tabs (ver.1)

Artists:  A B C D E F G H I J K L M N O P Q R S T U V W X Y Z # 

Cry My Darling Tabs (ver.1)

Washya Tabs
Rating:
0/5 (0 votes)
Cry My Darling lessons Tabs too difficult? Try these video lessons and learn fast
                -----------------------------------------------------------------------------
-----------------------------------------------------------------------------
Tuning: Standard (ebgDAE)
Intro

 Am
e|-0-------------------------------------------------0--|
b|-1-1-----1-----1-----1-----1-----1p0-----1p0-------1--|
g|-2-----2-----2-----2-----2-----2-----2---------2p0-2--|
D|-2---2-----2-----2-----2-----2---------2-----2-----2--|
A|-0-------------------------------------------------0--|
E|-0-------------------------------------------------0--|

Verses     Am,                                    G. 

e|---------------------------------------3-------333-33-33-------3p0-3---3-|
b|-111-11-11-0h1p0---------1-11-11---------3-----333-33-33-------------3-3-|
g|-222-22-22-------2-----2---22-22---------------000-00-00---------------0-|
D|-222-22-22---------2-0-----22-22---------------000-00-00---------------0-|
A|-------------------------------------2-------2-222-22-22-----2---------2-|
E|---------------------------------3p0-------3---333-33-33-3p0-----------3-|

Chorus
e|------------------------------------------------------|
b|------------------------------------------------------|
g|------------------------------------------------------|
D|-------------------2p0----------------------------3---|
A|-333-555-333-2-2h3-----2-333-555-333-----1p0-2222-1-3-|
E|-111-333-111-0-----------111-333-111-1h2-----0000---1-|


Guitar Solo
e|---------------------------------------------------------------15~-|
b|-7h8p7---8p7------------------------------------------------12-----|
g|-------9-----9-------7h8p7---11------11------11-------13-14--------|
D|---------------8p7-9-------9----11-9----11-9----11-12--------------|
A|-------------------------------------------------------------------|
E|-------------------------------------------------------------------|
            

comments powered by Disqus
↑ Back to top | Washya Tabs for Cry My Darling. Lyrics for acoustic guitar and electric guitar. Tablatures and chords are parodies/interpretations of the original songs. You may use it for private study, scholarship, research or language learning purposes only