» » »

Crushing Blow Tabs (ver.2)

Artists:  A B C D E F G H I J K L M N O P Q R S T U V W X Y Z # 

Crushing Blow Tabs (ver.2)

Washya
Rating:
0/5 (0 votes)

Hard to play? Try these video lessons and learn fast.
                -----------------------------------------------------------------------------
                 Crushing Blow - Washya
-----------------------------------------------------------------------------
Tuning: Drop D (DADGBE)
Intro
e|------------------------------------|
b|------------------------------------|
g|------------------------------------|
D|------------------------------------|
A|-0-0000-000--0-0000-000--0-0000-000-|
D|-0-0000-000--0-0000-000--0-0000-000-|
PM * **** ***  * **** ***  * **** *** 

Lead one
e|-------------------------------15b~-|
b|-------------------------------15b~-|
g|----12~--10~----------13~--11~------|
D|------------------------------------|
A|-------------5~---------------------|
D|-0----------------0-----------------|
PM *                * 

Rhythm one/Chorus
e|-----------------------|
b|-----------------------|
g|-----------------------|
D|--------------------2~-|
A|-0h1111p0h3p2p0-2h3----|
D|-0h1111p0h3p2p0--------|
PM                ***    

Lead two (guitar solo)
e|---13b-13b--------------------14-15----14-15-17-17-19~-|
b|---16b-16b-----14b-12b-12~-12-------12-----------------|
g|-----------13b-14b-12b---------------------------------|
D|-----------16b-----------------------------------------|
A|-------------------------------------------------------|
D|-/-----------------------------------------------------|

Rhythm two
e|------------------------------------------|
b|------------------------------------------|
g|-------------------5*---------------------|
D|-------------3----------------------------|
A|---------3-5---3-5----------------2-----1-|
D|-000-0-0--------------000-0-0-1-2---1-3-1-|
PM *** * *              *** * *
            
Hard to play? Try these video lessons and learn fast. | Correct




comments powered by Disqus
↑ Back to top | Tablatures and chords are parodies/interpretations of the original songs. You may use it for private study, scholarship, research or language learning purposes only