» » »

Washya, Cold Sensation Tabs (ver.1)

Artists:  A B C D E F G H I J K L M N O P Q R S T U V W X Y Z # 

Cold Sensation Tabs (ver.1)

Washya Tabs
 Rating:
4/5 (4 votes)
Cold Sensation lessons Tabs too difficult? Try these video lessons and learn fast
                -----------------------------------------------------------------------------
-----------------------------------------------------------------------------
Tuning: Standard (ebgDAE)
Intro
e|----------------------------------------|
b|----------------------------------------|
g|----------------------------------------|
D|----------3p1p0---1p0-------------------|
A|-22---1p0-------3-----3p1p0---1p0-5-3-5-|
E|-00-3-----------------------3-----3-1-3-|
PM ..                                       

Verses
e|----------------------------------------------|
b|----------------------------------------------|
g|-----9-----7-----777/9------------------------|
D|-----x-----x-----xxx-x------------------------|
A|-----7-----5-----555/7------------------------|
E|-000---000---000-------000-6-000-3-000-555/6--|
PM ...   ...   ...       ... . ... . ... ... . 

Chorus
e|------------------------------------------|
b|------------------------------------------|
g|-66666-------------99999-44444------------|
D|-66666-44444-55555-99999-44444-44444-33-2-|
A|-44444-44444-55555-77777-22222-44444-33-2-|
E|-------22222-33333-------------22222-11-0-|
            
Submit corrections

comments powered by Disqus
↑ Back to top | Washya Tabs for Cold Sensation. Lyrics for acoustic guitar and electric guitar. Tablatures and chords are parodies/interpretations of the original songs. You may use it for private study, scholarship, research or language learning purposes only