» » »

Washya, By Myself Tabs (ver.1)

Artists:  A B C D E F G H I J K L M N O P Q R S T U V W X Y Z # 

By Myself Tabs (ver.1)

Washya Tabs
 Rating:
4/5 (4 votes)
By Myself lessons Tabs too difficult? Try these video lessons and learn fast
1
                -----------------------------------------------------------------------------
-----------------------------------------------------------------------------
Tuning: Standard (EBGDAE)
Intro
E|-------------------------|
B|-------------------------|
G|---0h2p0-----------2---2-|
D|---------2p0-----3-2-3-2-|
A|-2-----------3-2-3---3---|
E|-0-------------0---------|

Verses
E|---------------------------------------------|
B|---------------------------------------------|
G|-2---2---2-------2---2---2---2---2-----------|
D|-2-4---4---4---3-2-3-2h4-2-3---3---3p2p0-----|
A|-0-----------2-3---3-----0---------------2-2-|
E|-------------0-----------------------------0-|

Chorus
E|----------------------------------------------------------------|
B|----------------------------------------------------------------|
G|--------------------------------------------------2---2-4-------|
D|----------------------------------------------0-4-2-4-2-4-4-----|
A|----55555555/66666666\55555555\44444444-22-22-0-4---4-----2-4-2-|
E|-//-33333333/44444444\33333333\22222222-00-00---------------2-0-|

Solo
E|---------------------------------------------14-15-15bp14p12h14-----|
B|---------5----------------------12-121212-12--------------------15b-|
G|-8-5---8---7-8------------------------------------------------------|
D|-----7---------5-7--------------------------------------------------|
A|-------------------8-5-3--------------------------------------------|
E|-------------------------5-7-3~-------------------------------------|

E|-------------------------------------------------|
B|-------------------------------------------------|
G|-13b-----------7-5-7-----------------------------|
D|-----11b-9-7-9-------9-9bp7-----7-9-8-7----------|
A|----------------------------7-9---------9--------|
E|------------------------------------------9-7-5~-|

E|------13h-16p13-----13h16p13-----12-----12-15-15/18~-|
B|-/14b-----------14b--------------12-----12-----------|
G|-----------------------------14b----14b--------------|
D|-----------------------------------------------------|
A|-----------------------------------------------------|
E|-----------------------------------------------------|

Outro (Fade out Till End)
E|-------------------------|
B|-------------------------|
G|-----2---2---------------|
D|---3-2-3-2-2-5p4p2---2---|
A|-2-3---3-----------4---2-|
E|-0---------------------0-|
            
Submit corrections

comments powered by Disqus
↑ Back to top | Washya Tabs for By Myself. Lyrics for acoustic guitar and electric guitar. 1 Tablatures and chords are parodies/interpretations of the original songs. You may use it for private study, scholarship, research or language learning purposes only