» » »

Bursting At The Seams Tabs (ver.1)

Artists:  A B C D E F G H I J K L M N O P Q R S T U V W X Y Z # 

Bursting At The Seams Tabs (ver.1)

Washya
Rating:
0/5 (0 votes)

Hard to play? Try these video lessons and learn fast.
                -------------------------------------------------------------------------------
-------------------------------------------------------------------------------
Tuning: Drop D (ebgDAD)
Intro
e|-----------------------------|
b|-----------------------------|
g|-----------------------------|
D|-----66-----44---------------|
A|-------------------66-----44-|
D|-000----000----000-66-000-44-|X3
PM ...    ...    ...    ...

Verses
e|----------------------------------------|
b|----------------------------------------|
g|----------------------------------------|
D|----------------------------------------|
A|-0000-0-000-0-0000-0-0-0------66-----44-|
D|-0000-0-000-0-0000-0-0-0--000----000----|
PM .... . ... . .... . . .  ...    ... 

Chorus
e|------------------------------------------------------|
b|------------------------------------------------------|
g|------------------------------------------------------|
D|-----5--------------------3---------------------------|
A|-000-3-000-3-00-5-0-6-000-1-000-1-00-3-0-5-0-1111-1-0-|
D|-000---000-3-00-5-0-6-000---000-1-00-3-0-5-0-1111-1-0-|
PM ...   ...   ..   .   ...   ...   ..   .   .        . 
            
Hard to play? Try these video lessons and learn fast. | Correct




comments powered by Disqus
↑ Back to top | Tablatures and chords are parodies/interpretations of the original songs. You may use it for private study, scholarship, research or language learning purposes only