» » »

Washya, Bullet Wound Tabs (ver.1)

Artists:  A B C D E F G H I J K L M N O P Q R S T U V W X Y Z # 

Bullet Wound Tabs (ver.1)

Washya Tabs
 Rating:
4/5 (4 votes)
Bullet Wound lessons Tabs too difficult? Try these video lessons and learn fast
1
                -----------------------------------------------------------------------------
-----------------------------------------------------------------------------
Tuning: Drop C (DAFCGC)
Intro
D|----------------------------------------|
A|----------------------------------------|
F|----------------------------------------|
C|----------------------------------------|
G|-4p3p1h4p1h3--5p3p2h5p2h3-2h3h5p3p2h3p0-|
C|-4p3p1h4p1h3--5p3p2h5p2h3-2h3h5p3p2h3p0-|

Verses
D|----------------------------------------------------------|
A|-------------7h8p7---7--------------------2h3p2---2-------|
F|-------------------9---9------------------------4---4-----|
C|--------------------------8-7-------------------------3-2-|
G|----------------------------------------------------------|
C|-0000-0-0-00------------------0000-0-0-00-----------------|
pm .... . . ..                  .... . . .. 

Chorus
D|--------------------------------------------------------------------------|
A|-------------------------------------8------------------------------------|
F|---------------------------------9-------9--------------------------------|
C|-----------------------------------9---9----------------------------------|
G|-2222-2-4444-4-5555-5-2h3-0000-0----------2222-2-4444-4-5555-5-2h3-0000-0-|
C|-2222-2-4444-4-5555-5-2h3-0000-0----------2222-2-4444-4-5555-5-2h3-0000-0-|

D|-------------|
A|-------6-----|
F|---7-------7-|
C|-----7---7---|
G|-------------|
C|-------------|
            
Submit corrections

comments powered by Disqus
↑ Back to top | Washya Tabs for Bullet Wound. Lyrics for acoustic guitar and electric guitar. 1 Tablatures and chords are parodies/interpretations of the original songs. You may use it for private study, scholarship, research or language learning purposes only