» » »

Washya, Breath Of Fire Tabs (ver.1)

Artists:  A B C D E F G H I J K L M N O P Q R S T U V W X Y Z # 

Breath Of Fire Tabs (ver.1)

Washya Tabs
Rating:
0/5 (0 votes)
Breath Of Fire lessons Tabs too difficult? Try these video lessons and learn fast
                -----------------------------------------------------------------------------
-----------------------------------------------------------------------------
Intro
Tuning: (EBGDAE)
e|----------------------------------------------------------|
b|----------------------------------------------------------|
g|----------------------------------------------------------|
D|---------5---------3---------7---------9------------------|
A|---------3---------1---------5---------7-9-7-9-9----------|
E|-1-3-3-1---1-3-3-1---1-3-3-1---1-3-3-1-----------10-9-7-5-|
PM * * * *   * * * *   * * * *   * * * *   

Verses
e|---------------------------------------------------------------------|
b|---------------------------------------------------------------------|
g|---------------------------------------------------------------------|
D|---------------------------------------------------------------------|
A|-----------------------------3p2p0-----------------------3p2p0-----2-|
E|-3p2p0-0-0-0-0-0-0-0-0-3p2p0-------0-0-0-0-0-0-0-0-3p2p0-------3p2p0-|
PM       * * * * * * * *             * * * * * * * *                 

Chorus
e|--------------------------------------------------------------------------|
b|--------------------------------------------------------------------------|
g|--------------------------------------------------------------------------|
D|-------------------------------5-5-5-5-5-55-5-5---------------------------|
A|-5-5-5-5-5-5-5-7-7-7-7-7-7-7-7-3-3-3-3-3-33-3-3-7-7-7-7-7-7-7-7-7-3-3-3-3-|
E|-3-3-3-3-3-3-3-5-5-5-5-5-5-5-5------------------5-5-5-5-5-5-5-5-5-1-1-1-1-|
PM * *   * *     * * *   * *   * * *       ** *   * * * * * *           * * 

e|---------------------------------------------------------------------|
b|---------------------------------------------------------------------|
g|---------------------------------------------------------------------|
D|-------------------------7-7-7-7-7-7-7-9-9-9-9-9-9-9-9---------------|
A|-3-3-3-3-3-5-5-5-5-5-5-5-5-5-5-5-5-5-5-7-7-7-7-7-7-7-7-9-9-9-9-9-9-9-|
E|-1-1-1-1-1-3-3-3-3-3-3-3-------------------------------7-7-7-7-7-7-7-|
PM * * *             * *     * * * *   * * * * * *           * * * 


e|---------------------------------------------------------------|
b|---------------------------------------------------------------|
g|---------------------------------------------------------------|
D|-----------------4-4-4-4-4-4-4---------------------------------|
A|-6-6-6-6-6-6-6-6-2-2-2-2-2-2-2-3-3-3-3-3-3-3-3-3--22-2-2-2-2-2-|
E|-4-4-4-4-4-4-4-4---------------1-1-1-1-1-1-1-1-1--00-0-0-0-0-0-|
PM * * * *             * * * *             * * * *     * * * 
            

comments powered by Disqus
↑ Back to top | Washya Tabs for Breath Of Fire. Lyrics for acoustic guitar and electric guitar. Tablatures and chords are parodies/interpretations of the original songs. You may use it for private study, scholarship, research or language learning purposes only