» » »

Breathe Tabs (ver.2)

Artists:  A B C D E F G H I J K L M N O P Q R S T U V W X Y Z # 

Breathe Tabs (ver.2)

Washya
Rating:
0/5 (0 votes)

Tabs too difficult? Try these video lessons and learn fast.
                -----------------------------------------------------------------------------
                Breathe - Washya
-----------------------------------------------------------------------------
Tuning: Standard (EBGDAE)
Intro
E|------------------------------------------------|
B|------------------------------------------------|
G|------------------------------------------------|
D|------------------------------------------------|
A|------------------------------------------------|
E|-2222-2222-2222-22-2222-2222-2222-222-22-22-222-|
PM **** **** **** ** **** **** **** *** ** ** *** 

Part 2          
E|-------------------------|----------------|
B|-------------------------|-8p7----8p7-----|
G|-------------------------|-----10---------|
D|-------------------------|------------9-7-|
A|-------------------------|----------------|
E|-5555635-3333413-1111201-|----------------|
PM ******* ******* ******* 

Verses
E|--------------------------------------------------------------------|
B|--------------------------------------------------------------------|
G|--------------------------------------------------------------------|
D|--------------------------------------------------------------------|
A|----------------------------------------5-----------8---------3---3-|
E|-0000-0000-00000-000-00-0000-000-0000-0-3-0000-00-0-6-000-0-0-1-0-1-|
PM **** **** ***** *** ** **** *** **** *   **** ** *   *** * *   *  

Chorus
E|-----------------------------------------------|
B|-----------------------------------------------|
G|-----------------------------------------------|
D|------------------------------6/10\9-----------|
A|-2-3-8-7-10-2-3-5-4-3-2-2-3-4-4/8-\7-5-7-8-7-5-|
E|-0-1-6-5-8--0-1-3-2-1-0-0-1-2--------3-5-6-5-3-|

Guitar Solo
E|-------------------------------12-15bp12----12~-16p15p13h15p13p12h13p12-|
B|--------------------------9h10-----------14-----------------------------|
G|-9bh12p9-9b12p9-9---77-9~-----------------------------------------------|
D|------------------9-----------------------------------------------------|
A|------------------------------------------------------------------------|
E|------------------------------------------------------------------------|

E|-/18p17p15h17p15\13h15p13p12-------------13p12-------------------------|
B|-----------------------------15p13p12h14-------15p13-------------------|
G|-----------------------------------------------------16p14p13----------|
D|--------------------------------------------------------------15p13h15-|
A|-----------------------------------------------------------------------|
E|-----------------------------------------------------------------------|

E|--------------------------------------|
B|--------------------------------------|
G|--------------------------------------|
D|-------------12p11--------------------|
A|-13h16p14p13-------13p12p11-----------|
E|----------------------------15p13p12~-|

E|-/10p8p7----8p7-----------------------------------------------------------|
B|---------10-----10p8p7----------------------------------------------------|
G|-----------------------10p8p7----8p7--------------------------------------|
D|------------------------------10-----10p8p7---------7p6-------------------|
A|--------------------------------------------9p7p6-9-----9p7p6---7p6-------|
E|--------------------------------------------------------------9-----9p7p6-|

Verses
E|--------------------------------------------------------------------|
B|--------------------------------------------------------------------|
G|--------------------------------------------------------------------|
D|--------------------------------------------------------------------|
A|----------------------------------------5-----------8---------3---3-|
E|-0000-0000-00000-000-00-0000-000-0000-0-3-0000-00-0-6-000-0-0-1-0-1-|
PM **** **** ***** *** ** **** *** **** *   **** ** *   *** * *   *  

Chorus
E|-----------------------------------------------|
B|-----------------------------------------------|
G|-----------------------------------------------|
D|------------------------------6/10\9-----------|
A|-2-3-8-7-10-2-3-5-4-3-2-2-3-4-4/8-\7-5-7-8-7-5-|
E|-0-1-6-5-8--0-1-3-2-1-0-0-1-2--------3-5-6-5-3-|
            
Tabs too difficult? Try these video lessons and learn fast.




comments powered by Disqus
↑ Back to top | Tablatures and chords are parodies/interpretations of the original songs. You may use it for private study, scholarship, research or language learning purposes only