» » »

Washya, Break Stride Tabs (ver.1)

Artists:  A B C D E F G H I J K L M N O P Q R S T U V W X Y Z # 

Break Stride Tabs (ver.1)

Washya Tabs
 Rating:
4/5 (4 votes)
Break Stride lessons Tabs too difficult? Try these video lessons and learn fast
1
                -----------------------------------------------------------------------------
-----------------------------------------------------------------------------
Tuning: Drop D (DADGBE)
Intro
E|-------------------------------------------------------|
B|-------------------------------------------------------|
G|-------------------------------------------------------|
D|-------------------------------------------------------|
A|------------------------------------12-10--------------|
D|-0-12-10-12-0-13-12-10-12-0-10-12-0-------0-0-10-12-12-|
PM * ** ** ** * ** ** ** ** * ** ** * ** ** * * ** ** **  

Part 2 (Guitar 2)
E|-0-----------------------------0-|
B|-3-----------------------------3-|
G|-2-----------------------6-5---2-|
D|-0---------------------------3-0-|
A|-0-----------------6-5-3-------0-|
D|-0-5-3-5-6-5-3-3-5-------------0-|
PM   * * * * * * * * * * * * * *   

Verses
E|-3-3-------------5-5-------------0-|
B|-3---3---3-------5---5---5-------3-|
G|-5-----5---------7-----7---------2-|
D|-3-------------3-5-------------5-0-|
A|-3-----------3---5-----------5---0-|
D|-3---------3-----5---------5-----0-|

Chorus (Turn On Distortion)
E|-----------------------------------------------------------------------|
B|-----------------------------------------------------------------------|
G|-----------------------------------------------------------------------|
D|---------------------------8\7---10\9----------------------------------|
A|-0-5-3-5-5-6-5-3-5-3-1-0-0-6\5-0-8-\7-0-3-5-6-5-3-5-0-8\7-0-10\9-0-1-3-|
D|-0-5-3-5-5-6-5-3-5-3-1-0-0-----0------0-3-5-6-5-3-5-0-8\7-0-10\9-0-1-3-|

Outro
E|-------------------------------------------------------|
B|-------------------------------------------------------|
G|-------------------------------------------------------|
D|-------------------------------------------------------|
A|------------------------------------12-10--------------|
D|-0-12-10-12-0-13-12-10-12-0-10-12-0-------0-0-10-12-12-|
PM * ** ** ** * ** ** ** ** * ** ** * ** ** * * ** ** **  
            
Submit corrections

comments powered by Disqus
↑ Back to top | Washya Tabs for Break Stride. Lyrics for acoustic guitar and electric guitar. 1 Tablatures and chords are parodies/interpretations of the original songs. You may use it for private study, scholarship, research or language learning purposes only