» » »

Washya, Bloodsoaked Bride Tabs (ver.1)

Artists:  A B C D E F G H I J K L M N O P Q R S T U V W X Y Z # 

Bloodsoaked Bride Tabs (ver.1)

Washya Tabs
 Rating:
4/5 (4 votes)
Bloodsoaked Bride lessons Tabs too difficult? Try these video lessons and learn fast
1
                -----------------------------------------------------------------------------
-----------------------------------------------------------------------------
Tuning: Drop C
Intro (evil laugh enters) 

D|--------------------------------------|
A|---2h3-----5h6-------------8~---8~----|
F|-------------------------7----7-------|
C|--------------------------------------|
G|-------3-------6-333------------------|
C|-0-----3-0-----6-333--00--------------|

Verses/Main Riff
D|--------------------------------------------------------------------------|
A|--------------------------------------------------------------------------|
F|-----------------------9---9---9---9\---9---9~-----------9----------------|
C|---------------------7---7---7---7----7---7------9---9-----8-7------9---9-|
G|-----------------------------------------------7---7---7-------9~-7---7---|
C|-xx\\pickslide-0000-------------------------------------------------------|
pm               .... 
Chorus
D|-----------------------------------------------------|
A|-----------------------------------------------------|
F|-7/9-7/9-7/9-7/9~--7/9~-----------9-10-9-------------|
C|-5/7-5/7-5/7-5/7~--5/7~-7/9-7/9---7-8--7------9---9~-|
G|------------------------5/7-5/7-7--------9~-7-7-7-7~-|
C|-----------------------------------------9~-7---7----|

Bridge
D|---------------------------------|
A|---------------------------------|
F|---------------------------------|
C|---------------------------------|
G|-2h3-2h3-2h3-2h3------2h3-2h3----|
C|-2h3-2h3-2h3-2h3-0000------------|
pm                 ....

Guitar Solo
D|-------------------------------------------------------------12b---|
A|-----------------------------------------------------10---10-12b---|
F|-------------------------------------------8---8---8----8----------|
C|---------------------3---3-----5---5---5-7---7---7-----------------|
G|-----3---3---3-5-3-5---5---5-7---7---7-----------------------------|
C|-3-5---5---5-------------------------------------------------------|
pm . . . . . . . . . . . . . . . . . . .   

D|-12b--12h14h15-14h16h17-16h18h19-21-22~-21-22-21------------------------|
A|-12b---------------------------------------------20---------------------|
F|-----------------------------------------------------19-18--------------|
C|-----------------------------------------------------------17-16--------|
G|-----------------------------------------------------------------14-12--|
C|------------------------------------------------------------------------|

D|----------------------------15-17-20-22-22~--|
A|-------------------------13----------22-22~--|
F|-------------------15-14---------------------|
C|-------15-14-12-13---------------------------|
G|-12-14---------------------------------------|
C|---------------------------------------------|
            
Submit corrections

comments powered by Disqus
↑ Back to top | Washya Tabs for Bloodsoaked Bride. Lyrics for acoustic guitar and electric guitar. 1 Tablatures and chords are parodies/interpretations of the original songs. You may use it for private study, scholarship, research or language learning purposes only