» » »

Washya, Blind Sighted Tabs (ver.1)

Artists:  A B C D E F G H I J K L M N O P Q R S T U V W X Y Z # 

Blind Sighted Tabs (ver.1)

Washya Tabs
Rating:
0/5 (0 votes)
Blind Sighted lessons Tabs too difficult? Try these video lessons and learn fast
                -------------------------------------------------------------------------------
-------------------------------------------------------------------------------
Tuning: Standard (ebgDAE)
Intro
e|---------------------------------------------------------------|
b|---------------------------------------------------------------|
g|---------------------------------------------------------------|
D|---------------------------------------------------------------|
A|-----1h2p1-----------------1h2p1-----------------0h1p0-3-1-----|
E|-000-------4h5-1h3-000-000-------4h5-1h3-000-000-----------1-3-|
pm ...               ... ...               ... ... 

Verses                                                    (A.H.)
e|---------0---------------0---------------0------------------12--|
b|-----3-----0---------5-----0---------7-----0-------------12-----|
g|-------0-----3p2-------0-----5p4-------0-----7p6------12--------|
D|---------------------------------------------------------------|
A|---2---------------4---------------6---------------0-----------|
E|-0---------------0---------------0---------------0-------------|

Chorus
e|---------------------------------------------|
b|---------------------------------------------|
g|-----------------------------2p0-------------|
D|---------------------------------2p0---------|
A|-222-22-3-2-3-222-22-3-2-3-2---------3p2-3-2-|
E|-000-00-1-0-1-000-00-1-0-1-0-------------1-0-|
pm ... ..       ... ..               
            

comments powered by Disqus
↑ Back to top | Washya Tabs for Blind Sighted. Lyrics for acoustic guitar and electric guitar. Tablatures and chords are parodies/interpretations of the original songs. You may use it for private study, scholarship, research or language learning purposes only