» » »

Washya, Bleed Tabs (ver.1)

Artists:  A B C D E F G H I J K L M N O P Q R S T U V W X Y Z # 

Bleed Tabs (ver.1)

Washya Tabs
Rating:
0/5 (0 votes)
Bleed lessons Tabs too difficult? Try these video lessons and learn fast
                -----------------------------------------------------------------------------
-----------------------------------------------------------------------------

Tuning: Drop B (BF#BEG#C#)
Intro
B|----------------------------------------|
F#|---------------------------------------|
B|----------------------------------------|
E|-------------7/10~----------------------|
G#|----7/10~---------0--------------------|
C#|-0--------0---------5/8~-0-0000-000-00-|
pm  .        .              . .... ... .. 

Verses
B|-----------------------------------------------------|
F#|----------------------------------------------------|
B|--------12~--12h13p12-10-----7~-5~-4~----------------|
E|------9------------------7-9-------------2-------5~--|
G#|---7----------------------------------2---2---5-----|
C#|-0----------------------------------2-------5-------|
pm                                     . . . . . .  

Chorus (Play very Fast)
B|----------------------------------------------------------------------|
F#|---------------------------------------------------------------------|
B|----------------------------------------------------------------------|
E|-------------------------------------------------------------5*-------|
G#|-3-2-3-2-5-3-2-3--3-2-3-2-5-3-2-3--3-2-3-2-6-5-3-2--3-2-3-2----3-2-0-|
C#|-3-2-3-2-5-3-2-3--3-2-3-2-5-3-2-3--3-2-3-2-6-5-3-2--3-2-3-2----3-2-0-|

Solo
B|--------------15-14----------------------------13-13-13-13-13-13-15-14----|
F#|-12-13-12-13-------12-13----13-13-13-13-13----------------------------12-|
B|--------------------------12----------------12----------------------------|
E|--------------------------------------------------------------------------|
G#|-------------------------------------------------------------------------|
C#|-------------------------------------------------------------------------|
            

comments powered by Disqus
↑ Back to top | Washya Tabs for Bleed. Lyrics for acoustic guitar and electric guitar. Tablatures and chords are parodies/interpretations of the original songs. You may use it for private study, scholarship, research or language learning purposes only