» » »

Washya, Black Misery Tabs (ver.1)

Artists:  A B C D E F G H I J K L M N O P Q R S T U V W X Y Z # 

Black Misery Tabs (ver.1)

Washya Tabs
 Rating:
4/5 (4 votes)
Black Misery lessons Tabs too difficult? Try these video lessons and learn fast
                -----------------------------------------------------------------------------
-----------------------------------------------------------------------------

Tuning:
Intro (Heavy Distortion)<       play fast   >
e|----------------------------------------------------------------------|
B|----------------------------------------------------------------------|
G|----------------------------------------------------------------------|
D|------------------------2-3-5-6-5-3-2---------------------------------|
A|-33-33-2-33-33-2\-2-3-5---------------5-3-2-------3-4-6-7-6-4-3-------|
E|-11-11-0-11-11-0\---------------------------3-4-6---------------6-4-3-|
pm                  . . . . . . . . . . . . . . . . . . . . . . . . . .  

Verses
e|-----------------------------------------------------------------|
B|----------------------------------------------11~----------------|
G|----------------------------------------9---9--------------------|
D|---------------------------------7----7---7----------------------|
A|------2------2------2------2---5----5------------------2------2--|
E|-0000-0-0000-0-0000-0-0000-0-3--------------------0000-0-0000-0--|
pm ....   ....   ....   ....                        ....   .... 



Chorus
e|----------------------------------------------------14~--------|
B|-------------------------------------------------13------------|
G|-2------------33-2-7-4------------------11h12-11---------------|
D|-2-3-2--------33-2-7-4-----------9h10-9------------------------|
A|-0-3-2------2-11-0-5-2------2--7-----------------------------2-|
E|---1-0-0000-0----------0000-0---------------------------0000-0-|
pm       ....            ....                             .... 
            
Submit corrections

comments powered by Disqus
↑ Back to top | Washya Tabs for Black Misery. Lyrics for acoustic guitar and electric guitar. Tablatures and chords are parodies/interpretations of the original songs. You may use it for private study, scholarship, research or language learning purposes only