» » »

Washya, Black Math Tabs (ver.1)

Artists:  A B C D E F G H I J K L M N O P Q R S T U V W X Y Z # 

Black Math Tabs (ver.1)

Washya Tabs
 Rating:
4/5 (4 votes)
Black Math lessons Tabs too difficult? Try these video lessons and learn fast
1
                -----------------------------------------------------------------------------
-----------------------------------------------------------------------------
Tuning: Drop D (DADGBE)
Intro/Chorus
E|-----------------------------------------------------------|
B|-----------------------------------------------------------|
G|-----------------------------------------------------------|
D|-------------------------------------555-----333-----------|
A|-3-000-3-0-3-000-3-0-3-000-3-0-3/6-5-333-333-111-111-0-1-0-|
D|-3-000-3-0-3-000-3-0-3-000-3-0-3/6-5-----333-----111-0-1-0-|
 

Part 2
E|--------------------------------------------------------|
B|--------------------------------------------------------|
G|----------------10*----------------10*------------------|
D|-88-8888-88-888-----88-8888-88-888-----8h10h11p10p8-----|
A|----------------------------------------------------10~-|
D|--------------------------------------------------------|

Verses
E|-------------------------------------------|
B|-------------------------------------------|
G|-------------------------------------------|
D|-------------------------------------------|
A|-000-3h4p3-000-3h4p3-000-3h4p3-0h3h4/777\6-|
D|-000-3h4p3-000-3h4p3-000-3h4p3-0h3h4/777\6-|
PM ***       ***       ***    

Part 3
E|----------------------------------------------------------|
B|----------------------------------------------------------|
G|----------------10*----------------10*---10h12p10p8-------|
D|-88-8888-88-888-----88-8888-88-888-----8------------10p8~-|
A|----------------------------------------------------------|
D|----------------------------------------------------------|

Verses
E|-------------------------------------------|
B|-------------------------------------------|
G|-------------------------------------------|
D|-------------------------------------------|
A|-000-3h4p3-000-3h4p3-000-3h4p3-0h3h4/777\6-|
D|-000-3h4p3-000-3h4p3-000-3h4p3-0h3h4/777\6-|
PM ***       ***       ***       

Part 4 (Also follows on into Solo)
E|-----------------------------------------------------13p12----------------|
B|-----------------------------------------------13h15-------15p14p12----12-|
G|----------------10*----------------10*---10h12----------------------14----|
D|-88-8888-88-888-----88-8888-88-888-----8----------------------------------|
A|--------------------------------------------------------------------------|
D|--------------------------------------------------------------------------|

E|----15p13p12----------14p15/17b-17b-19b~-|
B|-14----------15p13p12--------------------|
G|-----------------------------------------|
D|-----------------------------------------|
A|-----------------------------------------|
D|-----------------------------------------|


Verses
E|-------------------------------------------|
B|-------------------------------------------|
G|-------------------------------------------|
D|-------------------------------------------|
A|-000-3h4p3-000-3h4p3-000-3h4p3-0h3h4/777\6-|
D|-000-3h4p3-000-3h4p3-000-3h4p3-0h3h4/777\6-|
PM ***       ***       ***    

Intro/Chorus
E|-----------------------------------------------------------|
B|-----------------------------------------------------------|
G|-----------------------------------------------------------|
D|-------------------------------------555-----333-----------|
A|-3-000-3-0-3-000-3-0-3-000-3-0-3/6-5-333-333-111-111-0-1-0-|
D|-3-000-3-0-3-000-3-0-3-000-3-0-3/6-5-----333-----111-0-1-0-|

Outro
E|---------------------------------------|
B|---------------------------------------|
G|---------------------------------------|
D|---888---888-----888-------------------|
A|---------------------0-2-0-3-0-2h3p2p0-|
D|-0-----0-----0-0-----0-2-0-3-0-2h3p2p0-|
PM *     *     * * 
            
Submit corrections

comments powered by Disqus
↑ Back to top | Washya Tabs for Black Math. Lyrics for acoustic guitar and electric guitar. 1 Tablatures and chords are parodies/interpretations of the original songs. You may use it for private study, scholarship, research or language learning purposes only