» » »

Bite The Bullet Tabs (ver.1)

Artists:  A B C D E F G H I J K L M N O P Q R S T U V W X Y Z # 

Bite The Bullet Tabs (ver.1)

Washya
Rating:
0/5 (0 votes)

Tabs too difficult? Try these video lessons and learn fast.
                -------------------------------------------------------------------------------
-------------------------------------------------------------------------------
Tuning: Drop D (DADGBE)
Intro
E|--------------------------------------------------|
B|--------------------------------------------------|
G|--------------------------------------------------|
D|----------------3p2-----------------------3-------|
A|----5-555/8-3-5-----3-5-1-3-333/6-3-5-6-5---5-3-5-|
D|-xx-5-555/8-------------1-3-333/6-3-5-6-5---5-3-5-|
PM      ***   * * *** * *     ***           * 

Verses
E|-1/333-5\4/7-7777---7---7---7---7---7---8---8---8---8---8-888-|
B|-2/444-6\5/8-8888-7---7---------------7---7---7-----------888-|
G|-3/555-7\6/9-9999---------7---7---7---------------7---7---777-|
D|-3/555-7\6/9-9999---------------------------------------------|
A|-1/333-5\4/7-7777---------------------------------------------|
D|-1/333-5\4/7-7777---------------------------------------------|

Chorus
E|--------------------------------------------------------------------------|
B|--------------------------------------------------------------------------|
G|--------------------------------------------------------------------------|
D|-------------------------5----------------7----------------10-------------|
A|----3-2-1----------------3----------------5----------------8--0h3p2p0h2p0-|
D|-00-3-2-1-0000-000-000-0---0000-000-000-0---0000-000-000-0----0h3p2p0h2p0-|
PM **       **** *** *** *   **** *** *** *   **** *** *** *    
            
Tabs too difficult? Try these video lessons and learn fast.




comments powered by Disqus
↑ Back to top | Tablatures and chords are parodies/interpretations of the original songs. You may use it for private study, scholarship, research or language learning purposes only