» » »

Washya, Beyond Repair Tabs (ver.1)

Artists:  A B C D E F G H I J K L M N O P Q R S T U V W X Y Z # 

Beyond Repair Tabs (ver.1)

Washya Tabs
Rating:
0/5 (0 votes)
Hard to play? Try these video lessons and learn fast.
                -----------------------------------------------------------------------------
-----------------------------------------------------------------------------
Tuning: Drop B (BF#BEG#C#) 
Intro
B|------------------------|
F#|-----------------------|
B|------------------------|
E|------------------------|
G#|-3-5-0-1-333-0-5-6-555-|
C#|-3-5-0-1-333-0-5-6-555-|
PM  * * * * *** * * * *** 

Verses
B|---------------------------------------|
F#|--------------------------------------|
B|---------------------------------------|
E|---------------------------------------|
G#|-5-66-3-5-3-1--5-66-5-6-3-5-0-1-3/8\7-|
C#|-5-66-3-5-3-1--5-66-5-6-3-5-0-1-3/8\7-|
PM  * ** * * * *  * ** * * * * * * * 

Chorus
B|--------------------------------------------|
F#|-------------------------------------------|
B|--------------------------------------------|
E|--------------------------------------------|
G#|-5-6-5-666-3-5-3-1--5-66-5-6-3-5-0-1-3/8\7-|
C#|-5-6-5-666-3-5-3-1--5-66-5-6-3-5-0-1-3/8\7-|

Interlude (Fast)
B|-------------------------------------------------|
F#|------------------------------------------------|
B|-------------------------------------------------|
E|-----4-----------------------3-------------------|
G#|--------2-----3-2-3-2-1---------1-----2-1-2-3-4-|
C#|-22---2---2-4-----3-2-1--11---1---1-3-----2-3-4-|
PM  **   *   * *            **   *   * *       
            

comments powered by Disqus
↑ Back to top | Washya Tabs for Beyond Repair. Lyrics for acoustic guitar and electric guitar. Tablatures and chords are parodies/interpretations of the original songs. You may use it for private study, scholarship, research or language learning purposes only