>
 >
Best Of Grinspoon

Best Of Grinspoon Guitar Tabs

Washya - Best Of Grinspoon chords, tabs, tablatures, lyrics

Guitar lessons | Add/correct | Request | Top 50 tabs Artists:  A B C D E F G H I J K L M N O P Q R S T U V W X Y Z 0-9

Best Of Grinspoon Guitar Tabs – Washya

CD, Sheet music, Poster

Do you like Best Of Grinspoon? Share with your friends now
Tabs
----------------------------------------------------------------------------
			     More Than You Are - Grinspoon
----------------------------------------------------------------------------


Tuning: Drop D (DADgbe)
Intro x 3 
e|---------------------------------------------------------------|
B|---------------------------------------------------------------|
G|---------------------------------------------------------------|
D|-4-4-4-4-2-2-2-2-0-0-0-0-0-0-0---------------------------------|
A|-4-4-4-4-2-2-2-2-0-0-0-0-0-0-0---------------------------------|
D|-4-4-4-4-2-2-2-2-0-0-0-0-0-0-0---------------------------------|

Verses
e|--------------------------------------------------------------|
B|--------------------------------------------------------------|
G|--------------------------------------------------------------|
D|--------------------------------------------------------------|
A|--------------------------------------------------------------|
D|-0-0-0-0-0-0-0-0-0-0----0-0-0-0---0-0-0-0-0-0-0-0-0-----------|
pm. . . . . . . . . . . . . . . . . . . . . . . . . . 

Chorus
e|-------------------------------------------------------------------------|
B|-------------------------------------------------------------------------|
G|-------------------------------------------------------------------------|
D|-4-4-4-4-2-2-2-2-0-0-0-0-----------4-4-4-4-2-2-2-0-0-0-0-------------3v~-|
A|-4-4-4-4-2-2-2-2-0-0-0-0-3-5-6-5-3-4-4-4-4-2-2-2-0-0-0-0-3-2-0-3-2-0-----|
D|-4-4-4-4-2-2-2-2-0-0-0-0-----------4-4-4-4-2-2-2-0-0-0-0-----------------|
pm                         . . . . .                       . . . . . .     

Breakdown
e|----------------------------------------------------------------|
B|----------------------------------------------------------------|
G|----------------------------------------------------------------|
D|-4-4-X-X-7-7-X-X-2-2-0-0-X-X-X-4-4-X-X-7-7-X-X-2-2-0-0----------|
A|-4-4-X-X-7-7-X-X-2-2-0-0-X-X-X-4-4-X-X-7-7-X-X-2-2-0-0----------|
D|-4-4-X-X-7-7-X-X-2-2-0-0-X-X-X-4-4-X-X-7-7-X-X-2-2-0-0----------|

Soft Section
e|-------3----------3------------------3--------0---3---------|
B|---------2----------2------------------2----0---0---2-------|
G|------------------------------0---0-------------------------|
D|----------------------------0---0---------------------------|
A|---0----------0-----------0---------------------------------|
D|-0----------0---0-------0-----------------------------------|

Back To Chorus
e|------------------------------------------------------------|
B|------------------------------------------------------------|
G|------------------------------------------------------------|
D|-4-4-4-4-2-2-2-2-0-0-0-0-0-4-4-4-4-2-2-2-2-0-0-0-0-0--------|
A|-4-4-4-4-2-2-2-2-0-0-0-0-0-4-4-4-4-2-2-2-2-0-0-0-0-0--------|
D|-4-4-4-4-2-2-2-2-0-0-0-0-0-4-4-4-4-2-2-2-2-0-0-0-0-0--------|

Outro
e|--------------------------------------------------|
B|--------------------------------------------------|
G|--------------------------------------------------|
D|-4-4-X-X-7-7-X-X-2-2-0-0--------------------------|
A|-4-4-X-X-7-7-X-X-2-2-0-0--------------------------|
D|-4-4-X-X-7-7-X-X-2-2-0-0--------------------------|


----------------------------------------------------------------------------
			     Hard Act To Follow - Grinspoon
----------------------------------------------------------------------------





Tuning Standard (EADgbe)
Intro x 3 and verses 
e|-------------------------------------------------------|
B|-------------------------------------------------------|
G|-4-4-4-4-4-2-7-----------------------------------------|
D|-4-4-4-4-4-2-7-2---------------------------------------|
A|-2-2-2-2-2-0-5-2---------------------------------------|
E|---------------0---------------------------------------|

Chorus/Main Riff
e|-------------------------------------------------------|
B|-------------------------------------------------------|
G|-4-4-4-4-4-7-7-----------------------------------------|
D|-4-4-4-4-4-7-7-7-7-7-7-7-5-5-7-------------------------|
A|-2-2-2-2-2-5-5-7-7-7-7-7-5-5-7-------------------------|
E|---------------5-5-5-5-5-3-3-5-------------------------|

Break Down
e|--------------------------------------------------------|
B|--------------------------------------------------------|
G|-2-2-2-3-3-3--------------------------------------------|
D|-2-2-2-3-3-3-2-2-2-2------------------------------------|
A|-0-0-0-1-1-1-2-2-2-2------------------------------------|
E|-------------0-0-0-0------------------------------------|

Solo
e|-----------------------------------------------------------|
B|----------------------------------12----12~----------------|
G|----------------------------11/12----11--------------------|
D|-----7-7-----9-9-7---7-------------------------------------|
A|-7-9-----7-9-------9---9-7~-----------------7h9~-----------|
E|-----------------------------------------------------------|


e|----7-7----7-7----7-7----7-7----7-7-9~-10b-12b-12-10--------------|
B|----7-7----7-7----7-7----7-7----7-7------------------12-12~~------|
G|-9b-----9b-----9b-----9b-----9b-----------------------------------|
D|------------------------------------------------------------------|
A|------------------------------------------------------------------|
E|------------------------------------------------------------------|

After Solo
                                          Strike note
e|-------------------------------------------|---|-------------------|
B|-------------------------------------------|---|-------------------|
G|-------------------------------------------|---|-------------------|
D|-2-2-2-2-2-7-7-7-7-7-----------------------|-2-|-------------------|
A|-0-0-0-0-0-5-5-5-5-5-7-7-7-7-7-2-2-2-2-2-2-|-2-|-------------------|
E|---------------------5-5-5-5-5-0-0-0-0-0-0-|-0-|-------------------|
pm . . . . . . . . . . . . . . . . . . . . . 

Back to Main Riff.

----------------------------------------------------------------------------
			   Lost Control - Grinspoon
----------------------------------------------------------------------------


Tuning Drop D (DADgbe)
Intro x 3
e|---------------------------------------------|
B|---------------------------------------------|
G|---------------------------------------------|
D|------------------------5-4-3-0-3-4-5-0------|
A|------------------------5-4-3-0-3-4-5-0------|
D|-/fdbk\-0-0-0-0-0-0-0-0-5-4-3-0-3-4-5-0------|
pm        . . . . . . . . 

Verses
e|----------------------------------------------|
B|----------------------------------------------|
G|----------------------------------------------|
D|-0-3-0-3-0-3-0-5-4-3-0-3-4-5------------------|
A|-0-3-0-3-0-3-0-5-4-3-0-3-4-5------------------|
D|-0-3-0-3-0-3-0-5-4-3-0-3-4-5------------------|

Chorus
e|----------------------------------------------|
B|----------------------------------------------|
G|---7---------5-5-5----------------------------|
D|-0-7-0-5-5-5-5-5-5-3-3-3----------------------|
A|-0-5-0-5-5-5-3-3-3-3-3-3----------------------|
D|-0---0-5-5-5-------3-3-3----------------------|

Break
e|----------------------------------------------|
B|----------------------------------------------|
G|----------------------------------------------|
D|------------------------------------5/7-5/7---|
A|---------------5-6-7~---------------3/5-3/5---|
D|-0-0-0-0-0-0-0--------0-0-0-0-0-0-0-----------|
pm . . . . . . .        . . . . . . . 

Back To Verse

----------------------------------------------------------------------------
			     Black Friday - Grinspoon
----------------------------------------------------------------------------


Tuning Drop D (DADgbe)
Intro
e|--------------------------------------------------------------------|
b|--------------------------------------------------------------------|
g|--------------------------------------------------------------------|
D|-3-0-0-0-3-0-3-0-0-0-3-0-3-0-0-0-3-0-3h4-4-4-3-0-3------------------|
A|-3-0-0-0-3-0-3-0-0-0-3-0-3-0-0-0-3-0-3h4-4-4-3-0-3------------------|
D|-3-0-0-0-3-0-3-0-0-0-3-0-3-0-0-0-3-0-3h4-4-4-3-0-3------------------|

e|--------------------------------------------------------------------------|
B|--------------------------------------------------------------------------|
G|--------------------------------------------------------------------------|
D|--------------------------------------------------------------------------|
A|-8-8-8-8-8-8-8-8---8-8-8-8-8-8-8-8---8-8-8-8-8-8-8-8-8-8-8-8\-------------|
D|-----------------0-----------------0--------------------------------------|


Verses 
e|-----------------------------------------------------|
B|-----------------------------------------------------|
G|-----------------------------------------------------|
D|-0-3-3-3-4-3-3---------------------------------------|
A|-0-3-3-3-4-3-3---------------------------------------|
D|-0-3-3-3-4-3-3-x3------------------------------------|

Chorus
e|-----<5>---------<5>---------<5>---------------------------|
B|---------<5>---------<5>---------<5>-----------------------|
G|-------------<5>---------<5>---------<5>-------------------|
D|-0-3-------------------------------------------------------|
A|-0-3-------------------------------------------------------|
D|-0-3-------------------------------------------------------|

Solo
e|-----------------------------------------------------|
B|-----------------9b~-9b~-9b~-------------------------|
G|-7b~-7b~-7b~-----------------------------------------|
D|-----------------------------------------------------|
A|-----------------------------------------------------|
D|-----------------------------------------------------|

Back To Chorus

Outro
e|------------------------------------------------------------------------|
B|------------------------------------------------------------------------|
G|------------------------------------------------------------------------|
D|-0-9-8-7-7-6-5-5-4-3-3-2-0-0-2-0-2-3-2-0--------------------------------|
A|-0-9-8-7-7-6-5-5-4-3-3-2-0-0-2-0-2-3-2-0--------------------------------|
D|-0-9-8-7-7-6-5-5-4-3-3-2-0-0-2-0-2-3-2-0--------------------------------|


----------------------------------------------------------------------------
			     Bleed You Dry - Grinspoon
----------------------------------------------------------------------------


Tuning Drop D (DADgbe)
Intro/Main Riff/Chorus
e|----------------------------------------------------------------|
B|----------------------------------------------------------------|
G|----------------------------------------------------------------|
D|-------------3--------------3-3-3-3-5-5-5-5-3-0-----------------|
A|-3-5-------3---0-3-5-0------3-3-3-3-5-5-5-5-3-0-----------------|
D|-----0-3-5---------------X3-3-3-3-3-5-5-5-5-3-0-----------------|

Verses (strum)
e|-0-0------|
B|-0-0------|
G|-0-0------|
D|-3-5------|
A|-3-5------|
D|-3-5------|


Solo
e|----------------------------------------------------|
B|----------------------------------------------------|
G|----------------------------------------------------|
D|-----3-------5-------3-7-5-3---3--------------------|
A|-3-5-----3-5-----3-5---------5---5-3-5--------------|
D|-------0-------0------------------------------------|


----------------------------------------------------------------------------
			     Chemical Heart - Grinspoon
----------------------------------------------------------------------------


Tuning Standard (EADgbe) 
Intro/Main Riff/Verses
e|----------------------------------------------------|
B|---15----15----15-------13----13----12--------------|
G|------14----14----14/12----12----12----12/14--------|
D|----------------------------------------------------|
A|----------------------------------------------------|
E|-0--------------------------------------------------|

Chorus
e|------------------|
B|-0-7-7/9-9-5~-----|
G|-0-7-7/9-9-5~-----|
D|------------------|
A|------------------|
E|------------------|

Solo
e|-------------------------------------|
B|-------------------------------------|
G|-12~-11~-10~-9~----------------------|
D|----------------12~------------------|
A|--------------------9-10-11-12-------|
E|-------------------------------------|

Then Strum chords D and C.


----------------------------------------------------------------------------
			     Champion - Grinspoon
----------------------------------------------------------------------------


Tuning Drop D (DADgbe)
e|---------------------------------------------------|
B|---------------------------------------------------|
G|---------------------------------------------------|
D|-0-0-0-10-0-8-0------------------------------------|
A|-0-0-0-10-0-8-0---------3~-------------------------|
D|-0-0-0-10-0-8-0-2-3-2-3------X3--------------------|
pm                . . . . 

Pre-Chorus
e|--------------------------------------------------------------------------|
B|----------------------------------------------------------------------9~--|
G|--------------------------------------------------------------------------|
D|-0-0-0-0-0-0-0-0-0--0-0-0-0-0-0-0-0-0-1--0-0-0-0-0-0-0-0-0--0-0-0-0-1-----|
A|-0-0-0-0-0-0-0-0-0--0-0-0-0-0-0-0-0-0-1--0-0-0-0-0-0-0-0-0--0-0-0-0-1-----|
D|-0-0-0-0-0-0-0-0-0--0-0-0-0-0-0-0-0-0-1--0-0-0-0-0-0-0-0-0--0-0-0-0-1-----|
pm . . . . . . . . .  . . . . . . . . .    . . . . . . . . .  . . . . 

Chorus
e|--------------------------------------------------------------------|
B|--------------------------------------------------------------------|
G|--------------------------------------------------------------------|
D|-0-0-3-4-5-0-3-0-0-3-4-5-0-3-0-0------------------------------------|
A|-0-0-3-4-5-0-3-0-0-3-4-5-0-3-0-0------------------------------------|
D|-0-0-3-4-5-0-3-0-0-3-4-5-0-3-0-0------------------------------------|

Back to pre-chorus
Then Back to chorus

Break "Your world champion Now"
e|-------------------------------------------------|
B|-------------------------------------------------|
G|-------7-6-5-------------------7-6-5-------------|
D|-0-0-1-7-6-5-5-4-3-0-0-1-0-0-1-7-6-5-5-4-3-------|
A|-0-0-1-5-4-3-5-4-3-0-0-1-0-0-1-5-4-3-5-4-3-------|
D|-0-0-1-------5-4-3-0-0-1-0-0-1-------5-4-3-------|

Outro
E|-------------------------------------|
B|-------------------------------------|
G|-------------------------------------|
D|-0-0-0-0-0-0-0-0-0--0-0-0-0-0--------|
A|-0-0-0-0-0-0-0-0-0--0-0-0-0-0--------|
D|-0-0-0-0-0-0-0-0-0--0-0-0-0-0--------|


----------------------------------------------------------------------------
			     1000 miles - Grinspoon
----------------------------------------------------------------------------


Tuning: Standard (EADgbe)

Intro (banjo)
e|--------------------------------------|
B|--------------------------------------|
G|---------------9----------------------|
D|-7-10-7-10-7-7---7-10-7-10-0-0-0-0----|
A|--------------------------------------|
E|--------------------------------------|

Intro (guitar)
e|--------------------------------------|
B|--------------------------------------|
G|--------------------------------------|
D|--------------------------------------|
A|-------------2-0----------------------|
E|-0-3-0-3-0-0-----3-0-3-0-0-0-0--------|

Verses
e|---------------------------------------|
B|---------------------------------------|
G|---------------------------------------|
D|------------------------2--------------|
A|-------------2-0--------2--------------|
E|-0-3-0-3-0-0-----3-0-3--0--------------|

Chorus
e|---------------------------------------|
B|---------------------------------------|
G|-5-4-3-2-------------2-3-4-5-----------|
D|-5-4-3-2-------------2-3-4-5-----------|
A|-3-2-1-0-------------0-1-2-3-----------|
E|---------0-3-0-3-0-0-------------------|

Solo (Played Live)
e|-0-3-0-3-0-0-6-0-3-0-3-0-0-0-0-3-0-6-0-3-0-0-0-0---------------|
B|---------------------------------------------------------------|
G|---------------------------------------------------------------|
D|---------------------------------------------------------------|
A|---------------------------------------------------------------|
E|---------------------------------------------------------------|

Outro is just main riff again.



----------------------------------------------------------------------------
			   No Reason  - Grinspoon
----------------------------------------------------------------------------


Tuning Standard (EADgbe)
Intro
e|-------------------------------------------------|
B|-------------------------------------------------|
G|-6-6-8-8-----------------------------------------|
D|-6-6-8-8--8b-8b-8-6-4----------------------------|
A|-4-4-6-6-----------------------------------------|
E|-------------------------------------------------|

Chorus/Main Riff
e|-0---4-4-X-X-6-6-4---4-5----------|
B|---0-4-4-X-X-6-6-4h7-4--5---------|
G|-----6-6-X-X-8-8-4h8-6------------|
D|-----6-6-X-X-8-8-4h8-6------------|
A|-----5-5-X-X-7-7-4---5------------|
E|-----4-4-X-X-6-6-4---4------------|

Solo
e|----12-------12---------------------------------|
B|-12----12-12----12-12-12h14p12-10h12p10-10~-----|
G|------------------------------------------------|
D|------------------------------------------------|
A|------------------------------------------------|
E|------------------------------------------------|


----------------------------------------------------------------------------
			     Choke - Grinspoon
----------------------------------------------------------------------------


Tuning Drop D (DADgbe)
Intro/Chorus/outro
e|------------------------------------------------------------------------|
B|---------------------------------------------------------2---2----------|
G|---------2---2-----------2---2/4---------2---2-------2/4---4---4--------|
D|-----2/4---4---4-----2/4---4---------2/4---4---4-----------------6-5-3--|
A|-2-2--------------------------------------------------------------------|
D|-----------------2-2-------------0-0-------------0-0--------------------|

Verses
e|-------------------------------------------|
B|-------------------------------------------|
G|-----------------------------2-7-5---------|
D|-4-4-4-4-4-4-2-2-4-4-4-2-4-2-2-7-5---------|
A|-4-4-4-4-4-4-2-2-4-4-4-2-4-2-0-5-3---------|
D|-4-4-4-4-4-4-2-2-4-4-4-2-4-2---------------|

Back to chorus then outro


----------------------------------------------------------------------------
			     Sickfest - Grinspoon
----------------------------------------------------------------------------


Tuning Drop D (DADgbe)
Intro
e|------|-------------------|------------|
B|------|-------------------|------------|
G|------|---------------3---|------------|
D|------|---------------3-3-|---------3--|
A|-drums|---5p3p0-5p3p0-1-3-|---------3--|
D|------|-----------------3-|-0-0-0-0-3--|
play many     (this part)    (Then this)               

Verses
e|-----------------------------------------|
B|-----------------------------------------|
G|-----------------------------------------|
D|-0-0-0-0-3-7/5-0-0-----------------------|
A|-0-0-0-0-3-5/3-0-0-----------------------|
D|-0-0-0-0-3-----0-0-0-3-6-5-3-0-0-3-------|
pm . . . .       . .   . . . . . . .  

Chorus
e|------------------------------------------|
B|------------------------------------------|
G|------------------------------------------|
D|---------3------3-4-5---------------------|
A|---------3------------3-5-----------------|
D|-0-0-0-0-3--3-5---------------------------|

Break you Down
e|--------------------------------------------------|
B|--------------------------------------------------|
G|--------------------------------------------------|
D|-0-0-0-0-1--0-0-0-0-1--0-0-0-0-1--0-0-0-0-1-------|
A|-0-0-0-0-1--0-0-0-0-1--0-0-0-0-1--0-0-0-0-1-------|
D|-0-0-0-0-1--0-0-0-0-1--0-0-0-0-1--0-0-0-0-1-------|
Pm . . . .    . . . .    . . . .    . . . .   

Solo 
e|-------------------------------------------------|
B|-------------------------------------------------|
G|-9b-7h9p7-5h7p5-5p4p2b---------------------------|
D|-------------------------------------------------|
A|-------------------------------------------------|
D|-------------------------////--------------------|

e|-12h13h15p13p12----------------------------------|
B|----------------15-13-12----12-------------------|
G|-------------------------14----15-13-12-10/------|
D|-------------------------------------------------|
A|-------------------------------------------------|
D|-------------------------------------------------|

e|------------------------------------------------|
B|-------------12h13p12hh13p12h13p12p10~~~--------|
G|-----10b----------------------------------------|
D|-----10b--9~------------------------------------|
A|------------------------------------------------|
D|------------------------------------------------|

Back to main Riff





Comments


Popular Washya tabs & chords
Alkalinity Tabs
Blinded Tabs
Dead In The Morgue Tabs
Feeble Being Tabs
Go With The Flow Tabs
Hyperbaric Chamber Tabs
Shut Out Tabs
String Me Along Tabs
Stupidity Tabs
Trolling Unprotected Tabs


Song lyrics



↑ Back to top | Tablatures and chords are parodies/interpretations of the original songs. You may use it for private study, scholarship, research or language learning purposes only
© 2014 AZChords.com Contact us | Privacy policy | DMCA | Add/correct tabs | Request tabs | Top 50 tabs