» » »

Washya, Behind The Hills Tabs (ver.1)

Artists:  A B C D E F G H I J K L M N O P Q R S T U V W X Y Z # 

Behind The Hills Tabs (ver.1)

Washya Tabs
 Rating:
4/5 (4 votes)
Behind The Hills lessons Tabs too difficult? Try these video lessons and learn fast
1
                -----------------------------------------------------------------------------
-----------------------------------------------------------------------------

Tuning: Standard (eadgbe) 
intro
e|----------------------------------|
B|----------------------------------|
G|----------------------------------|
D|-9-9-9-9-9--9/7--7-7-7-7-7-7--7\9-|
A|-7-7-7-7-7--7/5--5-5-5-5-5-5--5\7-|
E|----------------------------------|


Verses
e|---------------------------------------------------------------|
B|---------------------------------------------------------------|
G|---------------------------------------------------------------|
D|-9999-9-99-99-9999-7--7777-7-7-7-777-7-7-----------------------|
A|-7777-7-77-77-7777-5--5555-5-5-5-555-5-5-2-3-4-5-5-5-5-555-5-5-|
E|-----------------------------------------0-1-2-3-3-3-3-333-3-3-|
pm ..   . .. .  ...  .  ..   . .   ..  .           . . . ..  . 


Chorus
e|-----------------------------------------|
B|-----------------------------------------|
G|-----------------------------------------|
D|-9-------7-7---------5-----------2-3-----|
A|-7-9-5-7-5-5-7-3-4-5-3-5-4-8-2-5-0-1-3-2-|
E|---7-3-5-----5-1-2-3---3-2-6-0-3-----1-0-|


Breakdown
e|-7h8p7--------------------------------------------------------|
B|-------10-7---------------------------------------------------|
G|------------6-5-----------------------------------------------|
D|----------------3-5-----------------------------4-------------|
A|--------------------5---------3-----------4-6-7---222-3-5-7-8-|
E|----------------------3-2-222-1-222-5-7-8---------000-1-3-5-6-|x3
pm                          ...   ...               ...
            
Submit corrections

comments powered by Disqus
↑ Back to top | Washya Tabs for Behind The Hills. Lyrics for acoustic guitar and electric guitar. 1 Tablatures and chords are parodies/interpretations of the original songs. You may use it for private study, scholarship, research or language learning purposes only