» » »

Washya, Before I Die Tabs (ver.1)

Artists:  A B C D E F G H I J K L M N O P Q R S T U V W X Y Z # 

Before I Die Tabs (ver.1)

Washya Tabs
Rating:
0/5 (0 votes)
Before I Die lessons Tabs too difficult? Try these video lessons and learn fast
                -------------------------------------------------------------------------------
-------------------------------------------------------------------------------
Tuning: Standard (ebgDAE)
Intro
e|-------------------------------------|
b|-------------------------------------|
g|-------------------------------------|
D|-3-2-5-3-----------------------------|
A|-3-2-5-3-----------------------------|
E|-1-0-3-1-11-11-11-11-11-11-11-11-11--| < those are one's 
PM         .. .. .. .. .. .. .. .. .. 

Verses
e|-------------------------------------------------------|
b|-------------------------------------------------------|
g|-------------------------------------------------------|
D|--------------------------------------------------10~\-|
A|-5----------------8-------------10----------------9~\--|
E|-3-33-33-33-33-33/6-66-66-66-66/8--88-88-88-88-88------|
PM   .. .. .. .. ..   .. .. .. ..    .. .. .. .. .. 

Chorus
e|----------------------------------------------------------------|
b|----------------------------------------------------------------|
g|--------------------------------------------------5/7-----------|
D|--------------------------------------------------5/7-7/8-------|
A|-2222---5-555555-----1h3-3-333333-6p5p3---7-77777-3/5-7/8-55555-|
E|-0000-0h3-333333-3h5-----1-111111-------3-5-55555-----5/6-33333-|
PM          ...... ... ...   ...... .....     .....         ..... 
            

comments powered by Disqus
↑ Back to top | Washya Tabs for Before I Die. Lyrics for acoustic guitar and electric guitar. Tablatures and chords are parodies/interpretations of the original songs. You may use it for private study, scholarship, research or language learning purposes only