» » »

Washya, Becoming One Tabs (ver.1)

Artists:  A B C D E F G H I J K L M N O P Q R S T U V W X Y Z # 

Becoming One Tabs (ver.1)

Washya Tabs
Rating:
0/5 (0 votes)
Becoming One lessons Tabs too difficult? Try these video lessons and learn fast
                ------------------------------------------------------------------------------
------------------------------------------------------------------------------
Tuning: D Standard (DAFCGD)
Intro
D|------------------------|
A|------------------------|
F|------------------------|
C|------------------------|
G|-222-222-222-222-222-22-|
D|-000-000-000-000-000-00-|
PM *** *** *** *** *** ** 

Main Riff/
D|-------------------------------------------------|
A|-------------------------------------------------|
F|-------------------------------------------------|
C|----8\7----------------------8\7-------7\5-------|
G|-22-6\5-22--22-8\7-2-3-4--22-6\5-55-22-5\3-3/4/5-|
D|-00-----00--00-6\5-0-1-2--00-----33-00-----1/2/3-|

Verses
D|--------------------------------------|
A|--------------------------------------|
F|--------------------------------------|
C|--------------------------------------|
G|--------------------------------56567-|
D|-0-5b-5b-000-5b-5b-000-3b-3b-00-34345-|
PM *       ***       ***       ** 

Chorus
D|-------------------------------------------|
A|-------------------------------------------|
F|-------------------------------------------|
C|--------------------9--------------------5-|
G|-8---7---8---7-7-67-7-7---5---7---5-5-34-3-|
D|-6-0-5-0-6-0-5-5-45---5-0-3-0-5-0-3-3-12---|
PM   *   *   *            *   *   *  

Outro
D|-------------------------|
A|-------------------------|
F|---------------12\-------|
C|---------------12\-------|
G|-11-10-9-8-7-6-10\-22-22-|
D|-9--8--7-6-5-4-----00-00-|
PM                   ** ** 
            

comments powered by Disqus
↑ Back to top | Washya Tabs for Becoming One. Lyrics for acoustic guitar and electric guitar. Tablatures and chords are parodies/interpretations of the original songs. You may use it for private study, scholarship, research or language learning purposes only