» » »

Washya, Beautiful Young Girl Tabs (ver.1)

Artists:  A B C D E F G H I J K L M N O P Q R S T U V W X Y Z # 

Beautiful Young Girl Tabs (ver.1)

Washya Tabs
 Rating:
4/5 (4 votes)
Beautiful Young Girl lessons Tabs too difficult? Try these video lessons and learn fast
1
                -------------------------------------------------------------------------------
-------------------------------------------------------------------------------

Intro/Verses (Strum These Rhythmically) 
e|--------------------------------|
B|-12-12-12-7-7-7-4-4-5-----------|
G|-13-13-13-8-8-8-5-5-6-----------|
D|-14-14-14-9-9-9-6-6-7-7-7-7-9-9-|
A|-14-14-14-9-9-9-6-6-7-7-7-7-9-9-|
E|----------------------5-5-5-7-7-|

Chorus (Strum these as well)
e|----------------------------------------|
B|----------------------------------------|
G|-9-9-9----------------------------------|
D|-9-9-9-9-9-9-7-7-7-9-9-9h10p9-5-5-5-7-7-|
A|-7-7-7-9-9-9-7-7-7-9----------5-5-5-7-7-|
E|-------7-7-7-5-5-5-7----------3-3-3-5-5-|

Guitar Solo
e|----------------------------------------------------------|
B|---------------------------------7-5----------------------|
G|---------------------------------8-6h8p6------------------|
D|--------------------------9h10p9-9-7-----8-6--------------|
A|-14-12-------12h14p12-9/7--------9-7---------6-6h7p4-3/5~-|
E|-------14-12-----------------------------------------1/3~-|

then back to Verses
            
Submit corrections

comments powered by Disqus
↑ Back to top | Washya Tabs for Beautiful Young Girl. Lyrics for acoustic guitar and electric guitar. 1 Tablatures and chords are parodies/interpretations of the original songs. You may use it for private study, scholarship, research or language learning purposes only