» » »

Washya, Banshee Tabs (ver.1)

Artists:  A B C D E F G H I J K L M N O P Q R S T U V W X Y Z # 

Banshee Tabs (ver.1)

Washya Tabs
 Rating:
4/5 (4 votes)
Banshee lessons Tabs too difficult? Try these video lessons and learn fast
1
                -----------------------------------------------------------------------------
-----------------------------------------------------------------------------

Tuning: Drop D
Intro
e|----------------------------------------------------------------------|
B|----------------------------------------------------------------------|
G|----------------------------------------------------------------------|
D|---------------------------------------12p11p10-12p11p10-12p11p10-12\-|
A|----------------------------------------------------------------------|
D|-0-4-3-0-6-5-0-3-2-0-8-7-0-5-6-0-4-3-0--------------------------------|
pm . . . . . . . . . . . . . . . . . . 

Intro 2
e|--------------------------------------------------------------------|
B|--------------------------------------------------------------------|
G|--------------------------------------------------------------------|
D|-0-4-3-0-6-5-0-3-2-0-8-7-0-5-6-0-4-3-0-12p11p10-12p11p10-12p11p10---|
A|-0-4-3-0-6-5-0-3-2-0-8-7-0-5-6-0-4-3-0------------------------------|
D|-0-4-3-0-6-5-0-3-2-0-8-7-0-5-6-0-4-3-0------------------------------|
pm . . . . . . . . . . . . . . . . . . 

Verses
e|------------------------------------------------------------------------|
B|------------------------------------------------------------------------|
G|-----------12~---------10-9---------------7/6-----7/6-------------------|
D|-0-0---7-9------------------7---------0-0-7/6-0-0-5/6-------------------|
A|-0-0-8------------------------9-7-----0-0-5/4-0-0-5/4----------12h13h15-|
D|-0-0-----------0-0-0-0------------9~--0-0-----0-0-----12h13h15----------|
pm . .           . . . .                . .     . .      . . . . . . . . . 


Chorus
e|-------------------------------------------------------------|
B|-------------------------------------------------------------|
G|-------------------------------------------------------------|
D|-0-2-6-6-6-3-7-7-9-9-9-9-9-7-7-7-7-5-5-8-8-3-3-3-5-5-5-5-5-2-|
A|-0-2-4-4-4-3-7-7-7-7-7-7-7-5-5-5-5-5-5-8-8-3-3-3-3-3-3-3-3-0-|
D|-0-2-------3-7-7-------------------5-5-8-8-3-3-3-------------|
pm . 

Guitar Solo
e|-------------------------------------------------------------------------|
B|-------------------------------------------------------------------------|
G|-------8-7---------------------------------------7-----------------------|
D|-----7-------------------------------------9-7-----9-----------------12~-|
A|-7-9-------8v~--9h10h12---------9h10h12-10-----9-----8-7h10h11----15-----|
D|------------------------9h10h12--------------------------------13--------|
            
Submit corrections

comments powered by Disqus
↑ Back to top | Washya Tabs for Banshee. Lyrics for acoustic guitar and electric guitar. 1 Tablatures and chords are parodies/interpretations of the original songs. You may use it for private study, scholarship, research or language learning purposes only