» » »

Washya, A Welcomed Invitation Tabs (ver.1)

Artists:  A B C D E F G H I J K L M N O P Q R S T U V W X Y Z # 

A Welcomed Invitation Tabs (ver.1)

Washya Tabs
 Rating:
4/5 (4 votes)
A Welcomed Invitation lessons Tabs too difficult? Try these video lessons and learn fast
                -----------------------------------------------------------------------------
-----------------------------------------------------------------------------
Tuning: Drop D (DADGBE)
Intro
Rhythm
e|---------------------------------------|
b|---------------------------------------|
g|---------------------------------------|
D|---------------------------------------|
A|-4444-4444-4444-111-222-4444-4444-4444-|
D|-4444-4444-4444-111-222-4444-4444-4444-|

Intro 
Lead
E|----------------------------------|
B|----------------------------------|
G|---------5----------------5-------|
D|-5-7-5-7---7-5-7--5-7-5-7---7-5-7-|
A|----------------------------------|
D|----------------------------------|

Verses
Rhythm
e|----------------------------------|
b|----------------------------------|
g|----------------------------------|
D|----------------------------------|
A|-0000-0000-00-0000-0000-1111-3333-|
D|-0000-0000-00-0000-0000-1111-3333-|
pm .... .... .. .... .... .... .... 

e|----------------------------------|
b|----------------------------------|
g|----------------------------------|
D|----------------------------------|
A|-0000-0000-00-0000-0000-3333-5555-|
D|-0000-0000-00-0000-0000-3333-5555-|
pm .... .... .. .... .... .... .... 

Verses 
Lead
e|--------------------------------------------------|
b|-------------10-----------------------10----------|
g|-10-12-10-12----12-10-12--10-12-10-12----12-10-12-|
D|--------------------------------------------------|
A|--------------------------------------------------|
D|--------------------------------------------------|

Chorus
Rhythm
e|--------------------------------------------------------------|
b|--------------------------------------------------------------|
g|--------------------------------------------------------------|
D|-----------------------------5555-7777------------------------|
A|-4444-4444-666-777-5555-5555-3333-5555-3333-3333-111122224444-|
D|-4444-4444-666-777-5555-5555-----------3333-3333-111122224444-|

Chorus
Lead
e|-------------------------------------------13----------17b-19b-|
b|-------------11----------------13-15-13-15----15-13-15-17b-19b-|
g|-11-13-11-13----13-11-13/14/16---------------------------------|
D|---------------------------------------------------------------|
A|---------------------------------------------------------------|
D|---------------------------------------------------------------|
            
Submit corrections

comments powered by Disqus
↑ Back to top | Washya Tabs for A Welcomed Invitation. Lyrics for acoustic guitar and electric guitar. Tablatures and chords are parodies/interpretations of the original songs. You may use it for private study, scholarship, research or language learning purposes only