» » »

Auto - Matic Tabs (ver.1)

Artists:  A B C D E F G H I J K L M N O P Q R S T U V W X Y Z # 

Auto - Matic Tabs (ver.1)

Washya
Rating:
0/5 (0 votes)

Hard to play? Try these video lessons and learn fast.
                -------------------------------------------------------------------------------
-------------------------------------------------------------------------------
Tuning: Drop C (DAFCGC)
Intro
D|--------------------------------------------|
A|--------------------------------------------|
F|--------------------------------------------|
C|--------------------------------------------|
G|--------------------------------------------|
C|-3p00-3p000-3p0-3p00-3p000-5p00h6p00-000000-|x 3
PM .... ..... ... .... ..... ......... ...... 

Intro 2
D|--------------------------------------------|
A|--------------------------------------------|
F|--------------------------------------------|
C|--------------------------------------------|
G|-3p00-3p000-3p0-3p00-3p000-5p00h6p00-000000-|
C|-3p00-3p000-3p0-3p00-3p000-5p00h6p00-000000-|x 3

Verses
D|-----------------------------------------------|
A|-----------------------------------------------|
F|-----------------------------------------------|
C|-----------------------------------------------|
G|-----------------------------------------------|
C|-1p00-1p00-1p00-1h4p3p1-3p00-3p00-3p00-3h6p5p3-|
PM .... .... .... ....... .... .... .... ....... 

Chorus
D|-------------------------------------------------------|
A|-------------------------------------------------------|
F|-------------------------------------------------------|
C|-44----------------44-----------8/7--------------------|
G|-22-33-5-3-5-3p2p0-22-1-0-1-0-1-6/5-555-22h4p2h5-0h3h5-|
C|----33-5-3-5-3p2p0----1-0-1-0-1-----555-22h4p2h5-0h3h5-|

Interlude
D|-------------------------------|
A|-------------------------------|
F|-------------------------------|
C|-0-0-3p2p0-----------1p0-------|
G|-----------2p0-3-1h2-----3-2-0-|
C|---------------3-1---------2-0-|
PM               . .         . . 
            
Hard to play? Try these video lessons and learn fast. | Correct




comments powered by Disqus
↑ Back to top | Tablatures and chords are parodies/interpretations of the original songs. You may use it for private study, scholarship, research or language learning purposes only