» » »

Washya, Attrition Tabs (ver.1)

Artists:  A B C D E F G H I J K L M N O P Q R S T U V W X Y Z # 

Attrition Tabs (ver.1)

Washya Tabs
 Rating:
4/5 (4 votes)
Attrition lessons Tabs too difficult? Try these video lessons and learn fast
1
                -----------------------------------------------------------------------------
-----------------------------------------------------------------------------
Intro ( Play Fast )
Tuning: Standard (ebgDAE)
e|-------------------------------------------------------|
B|-------------------------------------------------------|
G|-------------------------------------------------------|
D|-----6------------6------------6-----------6-----------|
A|-3-5---5-3----3-5---5-3----3-5---5-3---3-5---5-3-------|
E|-----------5------------3------------5-----------3-2-1-|x 16

Verses
e|--------------------------------------------------------|
B|--------------------------------------------------------|
G|--------------------------------------------------------|
D|------------------------------------6~------6-----------|
A|---------5~-------6~-------3~-----------------5-3-------|
E|-0000000----00000----00000----00000---00000-------5-3-0-|
pm .......    .....    .....    .....   .....    

Chorus
e|----------------------------------------------------------|
B|----------------------------------------------------------|
G|----------------------------------------------------------|
D|-----5-3---------------------------------4/6-4/6------8~--|
A|-3-2-----2-0-----6-5-3-------------------2/4-2/4----------|
E|-------------3-5-------5-5h6p5-3-3-5-3-0---------6666-----|
pm                                                 .... 
            
Submit corrections

comments powered by Disqus
↑ Back to top | Washya Tabs for Attrition. Lyrics for acoustic guitar and electric guitar. 1 Tablatures and chords are parodies/interpretations of the original songs. You may use it for private study, scholarship, research or language learning purposes only