» » »

Washya, Ashes Tabs (ver.1)

Artists:  A B C D E F G H I J K L M N O P Q R S T U V W X Y Z # 

Ashes Tabs (ver.1)

Washya Tabs
 Rating:
4/5 (4 votes)
Ashes lessons Tabs too difficult? Try these video lessons and learn fast
                -------------------------------------------------------------------------------
-------------------------------------------------------------------------------

Tuning: Drop C (CGCfAd)
Intro
F|--------------------------------------------------------------------------|
A|-----------------2-2-2---------------------------2-2-----------2----------|
D|-------------2-2-4-4-4-2-2-2-----------------2-2-4-4-2-2-2---2-4----------|
C|-2-2-2-4-4-4-2-2-4-4-4-2-2-2-4-4-2-2-2-4-4-4-2-2-4-4-2-2-2-4-2-4----------|
G|-2-2-2-4-4-4-2-2-2-2-2-2-2-2-4-4-2-2-2-4-4-4-2-2-2-2-2-2-2-4-2-2----------|
C|-2-2-2-4-4-4-----------------4-4-2-2-2-4-4-4---------------4--------------|
pm . . . . . . . . . . . . . . . . . . . . . . . . . . . . . . .    


Verses                                     
F|--------------------------------------------------------------------|
A|--------------------------------------------------------------------|
D|-------------------------------------------------------------3------|
C|-0-1-3-1-0-1h3p1-0-1-3-3-0-1-4-3-0-1-3-0-1-3-0-1-3-0-1-3-0-1-3------|
G|-0-1-3-1-0-1h3p1-0-1-3-3-0-1-4-3-0-1-3-0-1-3-0-1-3-0-1-3-0-1-1------|
C|-0-1-3-1-0-1h3p1-0-1-3-3-0-1-4-3-0-1-3-0-1-3-0-1-3-0-1-3-0-1--------|
pm . . . . . . . . . .     . . . . . . . . . . . . . . . . . . 


Interlude/Small Solo/play slowly    x2
F|--------------------------------------------------------7----------|
A|-----------------------------------3-5/7-5-3----------8---8--------|
D|-------2-3-2---------------------4-----------4----7-9-------9-7----|
C|-----4-------4-----2-4-5-7-5-4-2---------------/7------------------|
G|---2-----------2-2-------------------------------------------------|
C|-0-----------------------------------------------------------------|



F|---------7---10-12-12-10-8----8h10p8----15-15-13-11----11h13p11-----|
A|-------8---8---------------10--------10-------------13----------13~-|
D|---7-9--------------------------------------------------------------|
C|-7------------------------------------------------------------------|
G|--------------------------------------------------------------------|
C|--------------------------------------------------------------------|


Main Solo

F|------------------------------------------------------------------------|
A|------------------------------------------------------------------------|
D|-9-9b-7h9p7-6-6h7p6-4h6p4-2h4p2p0---2-2/4---------------5---------------|
C|----------------------------------4---------6-5---5-6/8---8-6-5-3-3h5p3-|
G|------------------------------------------3-----3-----------------------|
C|------------------------------------------------------------------------|

                                                play very fast
F|---------------------------------------------14~-14----------|
A|--------------------------------8-9-11-11-12--------12-11-12-|
D|-------------------6-7-9-8-9-11------------------------------|
C|-------------4-5-7-------------------------------------------|
G|-------4-5-7-------------------------------------------------|
C|-3-4-6-------------------------------------------------------|



F|-14---------14----------14----------14-12---------12---------12------|
A|----12-11-12---12-11-12----12-11-12-------10-9-10----10-9-10---------|
D|---------------------------------------------------------------------|
C|---------------------------------------------------------------------|
G|---------------------------------------------------------------------|
C|---------------------------------------------------------------------|



F|---------12---------12---------14----------15----------17------------|
A|-10-9-10----10-9-10----10-9-10----12-11-12----13-12-13----15-14-15---|
D|---------------------------------------------------------------------|
C|---------------------------------------------------------------------|
G|---------------------------------------------------------------------|
C|---------------------------------------------------------------------|
                               < play three times >
F|-19----------21----------22~--------------------------------------|
A|----17-16-17----19-18-19------------------------------------------|
D|-----------------------------------10-12b-10-------10-12b-10b~----|
C|-----------------------------10h12-10-12b-10-10h12-10-12b---------|
G|-----------------------------10h12-----------10h12----------------|
C|------------------------------------------------------------------|



F|--------------------------------------------------------------------19-21-|
A|-----------------------------------------------------------17-19/21-------|
D|-------10-12b-10----10-12-------------------------14-16/18----------------|
C|-10h12-10-12b-10-12-10-12-------10-------12-14/16-------------------------|
G|-10h12-----------12-------10/12----12/14----------------------------------|
C|--------------------------------------------------------------------------|

Then Back to Intro
            
Submit corrections

comments powered by Disqus
↑ Back to top | Washya Tabs for Ashes. Lyrics for acoustic guitar and electric guitar. Tablatures and chords are parodies/interpretations of the original songs. You may use it for private study, scholarship, research or language learning purposes only