» » »

Washya, Artisan Tabs (ver.1)

Artists:  A B C D E F G H I J K L M N O P Q R S T U V W X Y Z # 

Artisan Tabs (ver.1)

Washya Tabs
Rating:
0/5 (0 votes)
Artisan lessons Tabs too difficult? Try these video lessons and learn fast
                -----------------------------------------------------------------------------
-----------------------------------------------------------------------------
Tuning: Standard (EBGDAE)
Intro
E|--------------------------------------------------------------|
B|--------------------------------------------------------------|
G|--------------------------------------------------------------|
D|---------2---2---2---1---1---------------------2b-----2-------|
A|-----5-4---4---4---3---3-------------------5-4----4-5---------|
E|-0-2-----------------------322322322-0-0-2--------------5-4-2-|
PM           * * * * * * *   ********* *                        

Part 2  Chorus (Play fast and loud)
E|----------------------------------------------------|
B|----------------------------------------------------|
G|----------------------------------------------------|
D|------------------------------------------8\7-8\7---|
A|----5/6/8\6\5\3/5----3/4/6\4\3-2---3/4----6\5-6\5-5-|
E|-00-3/4/6\4\3\1/3-00-1/2/4\2\1-0-0-1/2-00---------3-|
PM **               **             *     ** 

Interlude 
E|-----------------------------------------------------------------|
B|-----------------------------------------------------------------|
G|-----------------------------------------------------------------|
D|-10\9--10\9-10----------3-2-3-2-3--------------------------------|
A|-8-\7--8-\7-8--7-777777-1-0-1-0-1-2-222222-3-2-3-2-3/5-55\4-44-2-|
E|---------------5-555555-----------0-000000-1-0-1-0-1/3-33\2-22-0-|
PM                 ******             ******            
            
Submit corrections

comments powered by Disqus
↑ Back to top | Washya Tabs for Artisan. Lyrics for acoustic guitar and electric guitar. Tablatures and chords are parodies/interpretations of the original songs. You may use it for private study, scholarship, research or language learning purposes only