» » »

Washya, Around The World Tabs (ver.1)

Artists:  A B C D E F G H I J K L M N O P Q R S T U V W X Y Z # 

Around The World Tabs (ver.1)

Washya Tabs
 Rating:
4/5 (4 votes)
Around The World lessons Tabs too difficult? Try these video lessons and learn fast
                -----------------------------------------------------------------------------
-----------------------------------------------------------------------------
Tuning: Standard (EBGDAE)
Intro
E|------------------|
B|------------------|
G|------------------|
D|------------------|
A|-2-4-5-7--2-4-5-7-|
E|-0-2-3-5--0-2-3-5-|x 4

Verses
E|------------------------------------------------------------------|
B|------------------------------------------------------------------|
G|------------------------------------------------------------------|
D|----------3-2-----------------3-2-----------------6-5-------------|
A|----2-3-5-----3-1-3-5-3-5-3-5-----3-1-3-5-7-8-6-8-----6-4-6-6-5-4-|
E|-//-0---------------3-1-3---------------3-5-6---------------4-3-2-|
PM      * * * * * * *       * * * * * * *       * * * * * * * 

Part 2
E|------------------------|
B|------------------------|
G|------------------------|
D|-9-7-9-7-9-7-9-7-9-7----|
A|-7-5-7-5-7-5-7-5-7-5-5~-|
E|---------------------3~-|
PM * * * * * * * * * *     

Chorus
E|-------------------------------------------------------------|
B|-------------------------------------------------------------|
G|-------------------------------------------------------------|
D|-------------------------------------------------------------|
A|-22-44-55-77--22-44-55-99-/1010101010101010-9999999977777777-|
E|-00-22-33-55--00-22-33-77-/8-8-8-8-8-8-8-8--7777777755555555-|
            
Submit corrections

comments powered by Disqus
↑ Back to top | Washya Tabs for Around The World. Lyrics for acoustic guitar and electric guitar. Tablatures and chords are parodies/interpretations of the original songs. You may use it for private study, scholarship, research or language learning purposes only