» » »

Washya, Arials Tabs (ver.1)

Artists:  A B C D E F G H I J K L M N O P Q R S T U V W X Y Z # 

Arials Tabs (ver.1)

Washya Tabs
 Rating:
4/5 (4 votes)
Arials lessons Tabs too difficult? Try these video lessons and learn fast
                ------------------------------------------------------------------------------
                             Arials  - Washya
------------------------------------------------------------------------------


Tuning: Standard (EBGDAE)
Intro
e|-------------------------------------------------------------------------|
B|-------------------------------------------------------------------------|
G|-------------------------------------------------------------------------|
D|-------------------------------------------------------------------------|
A|-4-4-4-4-4-4-4-4-4-4-4-4-2-2-2-2-2-2-2-2-2-2-2-2-7-7-7-7-7-7-7-7-7-7-7-7-|
E|-2-2-2-2-2-2-2-2-2-2-2-2-0-0-0-0-0-0-0-0-0-0-0-0-5-5-5-5-5-5-5-5-5-5-5-5-|
PM * * * * * * * * * * * * * * * * * * * * * * * * * * * * * * * * * * * * x 3

Verses
E|-----------------------------------------------------------------|
B|-----------------------------------------------------------------|
G|-----------------------------------------------------------------|
D|-----------------------------------------------------------------|
A|---------2h5-2h4-2h5---------2h5-2h4-2h4---------------2h3-------|
E|-0-0-0-0-------------0-0-0-0-------------5p4p2-0-0-0-0-----5p3h5-|
PM * * * *             * * * *                   * * * * 

Chorus
E|-------------------------------------------------|
B|-------------------------------------------------|
G|-------------------------------------------------|
D|---7-------7-7-7-------5-------3-8-7-------------|
A|-4-5-7-9-5-5-5-5-3-5-6-3-6-5-3-1-6-5-7-7-7-3-3-5-|
E|-2---5-7-3-------1-3-4---4-3-1-------5-5-5-1-1-3-|
            
Submit corrections

comments powered by Disqus
↑ Back to top | Washya Tabs for Arials. Lyrics for acoustic guitar and electric guitar. Tablatures and chords are parodies/interpretations of the original songs. You may use it for private study, scholarship, research or language learning purposes only