» » »

Aquatic Distillation Tabs (ver.1)

Artists:  A B C D E F G H I J K L M N O P Q R S T U V W X Y Z # 

Aquatic Distillation Tabs (ver.1)

Washya
Rating:
0/5 (0 votes)

Hard to play? Try these video lessons and learn fast.
                -----------------------------------------------------------------------------
----------------------------------------------------------------------------
Tuning: Standard (ebgDAE)
Intro
e|-----------------------------|
b|-----------------------------|
g|-----------------------------|
D|-----3-------------3-------5-|
A|---5---5-6-------5---5-6-3---|
E|-6---------5-3-6-------------|
PM x x x x x x x x x x x x x x 

Verses
e|---------------------------|
b|---------------------------|
g|---------------------------|
D|---3-2-------------4---6-8-|
A|-5-----3-5-----5-6---6-----|
E|-----------5-3-------------|
PM x x x x x x x x x x x x x

Chorus
e|----------------------------------------------|
b|----------------------------------------------|
g|-------------------------------------------5b-|
D|-----3-2-------------5-6---------5-3-----3----|
A|-------------5-6---------2-3---------3-5------|
E|-5-6-----3-5-----3-2---------3-5--------------|
PM x x x x x x x x x x x x x x x x x x x x x 

Legend
x = Palm Mute
            
Hard to play? Try these video lessons and learn fast. | Correct




comments powered by Disqus
↑ Back to top | Tablatures and chords are parodies/interpretations of the original songs. You may use it for private study, scholarship, research or language learning purposes only