» » »

Washya, Apple Blossom Tabs (ver.1)

Artists:  A B C D E F G H I J K L M N O P Q R S T U V W X Y Z # 

Apple Blossom Tabs (ver.1)

Washya Tabs
Rating:
0/5 (0 votes)
Apple Blossom lessons Tabs too difficult? Try these video lessons and learn fast
                -----------------------------------------------------------------------------
-----------------------------------------------------------------------------

Tuning: Standard (EADgbe)
Intro
e|-------------------------------------------|
B|-------------------------------------------|
G|-------------------------------------------|
D|--7-7-7----------------7-7-7---------------|
A|--5-5-5-7-7-7-5-7-5-10-5-5-5-7-7-7-5-7-5-2-|
E|--------5-5-5-3-5-3-8--------5-5-5-3-5-3-0-|

Verses
e|------------------------------------------------------|
B|------------------------------------------------------|
G|------------------------------------------------------|
D|-55-5-5-555-5-5-55------------------------------------|
A|-33-3-3-333-3-3-33-5-55-5-5-555-22-2-2-222-22-2-2-222-|
E|-------------------3-33-3-3-333-00-0-0-000-00-0-0-000-|
pm .. .   ..  . . ..   .. .   ..   . . . ..   . . . ..  

Chorus
e|-----------------------------------------------------------------------|
B|-----------------------------------------------------------------------|
G|-----------------------------------------------------------------------|
D|--------5-55-5--------------2-22-2-2-----------------------------------|
A|-5-55-5-3-33-3-3-33-3-3-333-0-00-0-0-4-4-4-444-4-4-44-4-2-222-2-2-222--|
E|-3-33-3--------1-11-1-1-111----------2-2-2-222-2-2-22-2-0-000-0-0-000--|

Guitar Solo
e|----------------------------------------------------------------9-12~---|
B|--------------------------------------------------------------7---------|
G|--------------------------------------------7-------------3-5-----------|
D|-------------3-5-----3--------------------5---5-------3-1---------------|
A|-----1---1-1-----3-----1-4-5-----------3--------3---3-------------------|
E|-1-3---3-----------1---------3-1-3-1-3------------1---------------------|
            

comments powered by Disqus
↑ Back to top | Washya Tabs for Apple Blossom. Lyrics for acoustic guitar and electric guitar. Tablatures and chords are parodies/interpretations of the original songs. You may use it for private study, scholarship, research or language learning purposes only