» » »

Washya, Appetite For Trouble Tabs (ver.1)

Artists:  A B C D E F G H I J K L M N O P Q R S T U V W X Y Z # 

Appetite For Trouble Tabs (ver.1)

Washya Tabs
Rating:
0/5 (0 votes)
Appetite For Trouble lessons Tabs too difficult? Try these video lessons and learn fast
                -----------------------------------------------------------------------------
-----------------------------------------------------------------------------
Tuning: Standard (ebgDAE)
Intro
e|---------------|
b|---------------|
g|-999-7---------|
D|-999-7-8-7-5-2-|
A|-777-5-8-7-5-2-|
E|-------6-5-3-0-|

Main Riff
e|----------------------------|
b|----------------------------|
g|----------------------------|
D|------5-7-7-----------5-778-|
A|--5-7-------5-3-2-5-7---556-|
E|----------------0-----------|

Verses
e|-----------------------------------------------------------------------|
b|-----------------------------------------------------------------------|
g|-----------------------------------------------------------------------|
D|-5-------------------3-----------------------------3-------------------|
A|-333333333-7---------111111111-5---------7---------111111111-3---------|
E|-----------555555555-----------333333333-555555555-----------111111111-|
pm  ........  ........  ........  ........  ........  ........  ........

Sorry No Solo
            

comments powered by Disqus
↑ Back to top | Washya Tabs for Appetite For Trouble. Lyrics for acoustic guitar and electric guitar. Tablatures and chords are parodies/interpretations of the original songs. You may use it for private study, scholarship, research or language learning purposes only