» » »

Apathy Building Tabs (ver.1)

Artists:  A B C D E F G H I J K L M N O P Q R S T U V W X Y Z # 

Apathy Building Tabs (ver.1)

Washya
Rating:
0/5 (0 votes)

Tabs too difficult? Try these video lessons and learn fast.
                -----------------------------------------------------------------------------
-----------------------------------------------------------------------------

Tuning: Drop C
Intro
D|-------------------------------------------------------------|
A|-------------------------------------------------------------|
F|-------------------------------------------------------------|
C|-------------------------------------------------------------|
G|-----3-1-0---1---------3-1-0-----1-0-2-----2---3---2-1---1---|
C|-1-0-------3---1-0-3-5-------3-2-------3-1---1---1-----3---0-|
pm . .       .   . . . .       . .       . .   .   .     .   . 

Verses
D|--------------------------------------------------------------------------|
A|--------------------------------------------------------------------------|
F|--------------------------------------------------------------------------|
C|--------------------------------------------------------------------------|
G|-------------------------------------------------1--------------1---------|
C|-1--0-0-0-0--0-0-1--0-0-0-0--0-0-1--0-0-0-0--0-0---1-1-1-1--1-1---1-1-3-1-|
pm    . . . .  . .    . . . .  . .    . . . .  . .   . . . .  . .   . . . . 

Chorus
D|-----------------------------------------------------------------------|
A|-----------------------------------------------------------------------|
F|-----------------------------------------------------------------------|
C|-------1-3-----------------------------------3-------------------------|
G|---3-5-----5-3-3-3-3-3-3-3-5-5-5-5-5-----3-1---5-3---1-1-1-1-3-3-3-3---|
C|-1-------------3-3-3-3-3-3-5-5-5-5-5-1-3-----------1-1-1-1-1-3-3-3-3---|

D|--------------------------------------------------------------------------|
A|--------------------------------------------------------------------------|
F|--------------------------------------------------------------------------|
C|-------------------2-4-------------------4-3-1-----------------6-9--------|
G|-6-6-6-4-4-4---4-6-----6-4-2-2-2-2-2-2-4-------2---3-3-3-3-3-6-----8-5-5-5|
C|-6-6-6-4-4-4-2---------------2-2-2-2-2-----------1-3-3-3-3-----------5-5-5|

Guitar Solo
D|--------------------------------------------------------------------13-15-|
A|--------------------------------------------------------------10h12-------|
F|----2-4-6-------4-2-6-7-9---------------------------------7-9-------------|
C|----------2-4-6-----------7-6-4-5-7-----------4-6-4-2-4-6-----------------|
G|-2b---------------------------------9-8-5-3-2-----------------------------|
C|--------------------------------------------------------------------------|

D|-17-17-------------------13----------------------------------------22-22~-|
A|-------15-13-12----15-12----15----------------------------------20--------|
F|----------------13-------------12-13-15-------------17-18-----------------|
C|----------------------------------------13-12----15-------17-18-----------|
G|----------------------------------------------13--------------------------|
C|--------------------------------------------------------------------------|
            
Tabs too difficult? Try these video lessons and learn fast.




comments powered by Disqus
↑ Back to top | Tablatures and chords are parodies/interpretations of the original songs. You may use it for private study, scholarship, research or language learning purposes only