» » »

Washya, Another Lie Tabs (ver.1)

Artists:  A B C D E F G H I J K L M N O P Q R S T U V W X Y Z # 

Another Lie Tabs (ver.1)

Washya Tabs
 Rating:
4/5 (4 votes)
Another Lie lessons Tabs too difficult? Try these video lessons and learn fast
1
                ------------------------------------------------------------------------------
------------------------------------------------------------------------------
Tuning: Drop C (DAFCGC)
Intro
D|-------------------------------------------|
A|-------------------------------------------|
F|-------------------------------------------|
C|-----77-----55-----77-----55----5----7---9-|
G|--------------------------------3----5---7-|
C|-555----555----555----555----55---55---5---|
PM ***    ***    ***    ***    **   **   * 

Verses
D|-----------------------------------|
A|-----------------------------------|
F|-----------------------------------|
C|-----------------------------------|
G|-----55-----33-----77----3---5---7-|
C|-000----000----000----00---0---0---|
PM ***    ***    ***    **   *   * 

Chorus
D|--------------------------------------------------------------------------|
A|--------------------------------------------------------------------------|
F|-------------------------------------------------99999h10p9p7-------------|
C|-------------------------------------------------77777------5-------------|
G|-222-22-222-22/4/555-55-555-55-555-00-000-000-00-77777------5-55-555-22-0-|
C|-222-22-222-22/4/555-55-555-55-555-00-000-000-00-77777------5-55-555-22-0-|

Interlude Riff
D|------------------------------------------------------------------------|
A|---------------------------------------------------------------------10-|
F|---------------------------------------------------------10----10h12----|
C|----------------------------9----------12h13h15p14p12-12----12----------|
G|-----------------12p10-9h11---11-13h14----------------------------------|
C|-0-10h12p10-0-10--------------------------------------------------------|

D|------------------14----14----15-17~-|
A|-----10----10h12h----12----12--------|
F|--12----12---------------------------|
C|-------------------------------------|
G|-------------------------------------|
C|-------------------------------------|

Guitar Solo
D|--------------------------------------------------------------------------|
A|-----------------------------------5*-----------------------------------8-|
F|-9-9~-7h9p6-6h7p4~--5h7h8p7p5h7p4~----555h777h888p777p555h777h888-55h77---|
C|--------------------------------------------------------------------------|
G|--------------------------------------------------------------------------|
C|--------------------------------------------------------------------------|

D|-7h10p7h10p7----7h10p7h10p7----9h12p9h12p9----9h12p9h12p9-12b-12b-10~--|
A|-------------10-------------10-------------12-------------12b-12b------|
F|-----------------------------------------------------------------------|
C|-----------------------------------------------------------------------|
G|-----------------------------------------------------------------------|
C|-----------------------------------------------------------------------|

D|-----------------------------------------------------------------------|
A|-------------------------------------------------------------13h15h16--|
F|-------------------------------------------12h14h15-12h14--------------|
C|-------------------------10h12----10h12h13----------------15-----------|
G|---------9h11----9h11h12-------13--------------------------------------|
C|-9h11h12------12-------------------------------------------------------|
PM ***************************************** 

D|-----------------------------12h14----13h15h16p13h15h16p13h15h161616~-|
A|-13h15----12h14h15--12h14h15-------15---------------------------------|
F|-------16-------------------------------------------------------------|
C|----------------------------------------------------------------------|
G|----------------------------------------------------------------------|
C|----------------------------------------------------------------------|
            
Submit corrections

comments powered by Disqus
↑ Back to top | Washya Tabs for Another Lie. Lyrics for acoustic guitar and electric guitar. 1 Tablatures and chords are parodies/interpretations of the original songs. You may use it for private study, scholarship, research or language learning purposes only