» » »

Animal Tabs (ver.1)

Artists:  A B C D E F G H I J K L M N O P Q R S T U V W X Y Z # 

Animal Tabs (ver.1)

Washya
Rating:
0/5 (0 votes)

Hard to play? Try these video lessons and learn fast.
                -----------------------------------------------------------------------------
                   Animal -  Washya
-----------------------------------------------------------------------------
Tuning: Half Step Down (D#A#F#G#C#D#)
Intro
D#|-------------------------|
A#|-------------------------|
F#|-------------------------|
G#|-------------------------|
C#|-3-33-5h7-7-77-3h5-5-555-|
D#|-1-11-----5-55-----3-333-|
pm    ..       ..       ... 

Verses
D#|-----------------------------------------------|
A#|-----------------------------------------------|
F#|-----------------------------------------------|
G#|--------5-5555---------------4-4444------------|
C#|-3-3333-3-3333-5-5555-7-7777-2-2222-3-22-3-4-2-|
D#|-1-1111--------3-3333-5-5555--------1-00-1-2-0-|
pm    ....   ....   ....   ....   ....   ..       

Chorus
D#|----------------------------------------------------------------------|
A#|----------------------------------------------------------------------|
F#|----------------------5-5-5-5-------------------------8-8-8-8-5-5-5---|
G#|-11-11-11-11-11-11-11-5-5-5-5-4-4-4-4-7-7-7-7-5-5-5-5-8-8-8-8-5-5-5-2-|
C#|-11-11-11-11-11-11-11-3-3-3-3-4-4-4-4-7-7-7-7-5-5-5-5-6-6-6-6-3-3-3-2-|
D#|-9--9--9--9--9--9--9----------2-2-2-2-5-5-5-5-3-3-3-3---------------0-|

Solo (just tapping mainly for solo)
D#|-------------------------------------------------------------------------|
A#|-----------------7t13p9p7t13p9p7-------------------10t16p12p10t16p12p10--|
F#|-6t12p8p6t12p8p6-----------------8t14p10p8t14p10p8-----------------------|
C#|-------------------------------------------------------------------------|
G#|-------------------------------------------------------------------------|
D#|-------------------------------------------------------------------------|

D#|-12t18p14p12t18p14p12----------------------13t19p15p13t19p15p13-|
A#|----------------------12t18p14p12t18p14p12----------------------|
F#|----------------------------------------------------------------|
G#|----------------------------------------------------------------|
C#|----------------------------------------------------------------|
D#|----------------------------------------------------------------|
            
Hard to play? Try these video lessons and learn fast. | Correct




comments powered by Disqus
↑ Back to top | Tablatures and chords are parodies/interpretations of the original songs. You may use it for private study, scholarship, research or language learning purposes only