» » »

Washya, Angel Wings Tabs (ver.1)

Artists:  A B C D E F G H I J K L M N O P Q R S T U V W X Y Z # 

Angel Wings Tabs (ver.1)

Washya Tabs
 Rating:
4/5 (4 votes)
Angel Wings lessons Tabs too difficult? Try these video lessons and learn fast
1
                 ---------------------------------------------------------------------------
 ---------------------------------------------------------------------------

Tuning: Standard (EADgbe)
Intro
e|--------------------------------------------------------------------------|
b|--------------------------------------------------------------------------|
g|--------------------------------------------------------------------------|
D|----------------------------------------------------10---9---7------------|
A|-----6---5---3-----6---5---3----5-3-5-6-5-3-----7-7----7---7---7p6h7p6h7h6|
E|-2-2---2---2---2-2---2---2----2-------------5-7--------------------------8|
pm . .   .   .   . .   .   .    .             . . . .    .   . 

Verses   
e|----------------------------------------------------------|
b|----------------------------------------------------------|
g|----------8p7---------------------------------------------|
D|--------------7-----7-12\11\9/11/12----12-12b-------------|
A|-----4-4--------7h8---10\9\7/9/10---10----------9h10bp7---|
E|-2-2------------------------------------------7---------9-|  
pm . . . .               . . . . .         

Chorus
e|---------------------------------------------------------------|
b|---------------------------------------------------------------|
g|---------------------------------------------------------------|
D|---------------------------------------------------------------|
A|----9/10-12/11/9-5-5-5/7----3/4-6/5-3-2-2-3/5--------------2-2-|
E|-00-7/8--10/9/7--3-3-3/5-00-1/2-4/3-1-0-0-1/3-00-3-5-6-5-3-0-0-|
pm ..                      ..                   .. . . . . .    

Will add solo later when i think of one.
            
Submit corrections

comments powered by Disqus
↑ Back to top | Washya Tabs for Angel Wings. Lyrics for acoustic guitar and electric guitar. 1 Tablatures and chords are parodies/interpretations of the original songs. You may use it for private study, scholarship, research or language learning purposes only