» » »

Washya, Angel Of Mercy Tabs (ver.1)

Artists:  A B C D E F G H I J K L M N O P Q R S T U V W X Y Z # 

Angel Of Mercy Tabs (ver.1)

Washya Tabs
 Rating:
4/5 (4 votes)
Angel Of Mercy lessons Tabs too difficult? Try these video lessons and learn fast
1
                -----------------------------------------------------------------------------
----------------------------------------------------------------------------
Tuning: Standard (EBGDAE)
Intro
E|------------------------------------------|
B|------------------------------------------|
G|------------------------------------------|
D|-2-------2-2-22-----2p0-------------------|
A|-2---2h3---2-22-2h3-----2h3-5555-55-5-3/5-|
E|-0-0-------0-00-------------3333-33-3-1/3-|


Main Riff/Chorus
E|-------------------------------------------------------------|
B|-------------------------------------------------------------|
G|-------------------------------------------------------------|
D|-----2p0-------------2p0-------------2p0---------------------|
A|-2h3-----2h3-----2h3-----2h3-----2h3-----2h3p2---------------|
E|-------------000-------------000---------------0h2h3p2p0h1p0-|
PM             ***             *** 

Verses
E|---------------------0-------------------------0-----------------|
B|-----------------------0-------------------------0---------------|
G|-----0---------------------------------------0-------------------|
D|---4---4-----0-----0---------0---------2---2-----------3-----2-2-|
A|-2---------4-----2---------4---4-----2---4-----------3-----2---2-|
E|---------2-----3---------5-------5\3---------------1-----0-----0-|


Main Riff/Chorus
E|-------------------------------------------------------------|
B|-------------------------------------------------------------|
G|-------------------------------------------------------------|
D|-----2p0-------------2p0-------------2p0---------------------|
A|-2h3-----2h3-----2h3-----2h3-----2h3-----2h3p2---------------|
E|-------------000-------------000---------------0h2h3p2p0h1p0-|
PM             ***             *** 

Verses
E|---------------------0-------------------------0-----------------|
B|-----------------------0-------------------------0---------------|
G|-----0---------------------------------------0-------------------|
D|---4---4-----0-----0---------0---------2---2-----------3-----2-2-|
A|-2---------4-----2---------4---4-----2---4-----------3-----2---2-|
E|---------2-----3---------5-------5\3---------------1-----0-----0-|

Guitar Solo
E|-------------------------------------------------------------------|
B|-------------------------------------------------------------------|
G|-5h7p5--------5h7p5------------------------------------------------|
D|-------5h7\4--------7h9p7~-7h9h10-9h11h12-11h13h14p13p11h13p11~----|
A|-------------------------------------------------------------------|
E|-------------------------------------------------------------------|

E|------------------------------------------------12h13h15p13p12-15-15-15b~-|
B|-----------------------------/10h11h13p11p10h11---------------------------|
G|-/5h6h8p6p5h6/8p7h8h10p8p7h8----------------------------------------------|
D|--------------------------------------------------------------------------|
A|--------------------------------------------------------------------------|
E|--------------------------------------------------------------------------|

E|--------14h17p14--------14h17p14--------14h17p14h17171717p14h171717p14-|
B|-----14--------------14--------------14--------------------------------|
G|-16b-------------16b-------------16b-----------------------------------|
D|-----------------------------------------------------------------------|
A|-----------------------------------------------------------------------|
E|-----------------------------------------------------------------------|

E|-17171717p14h16161616p14h16161616p14----------------------------13-------|
B|-------------------------------------16-17-16-14----------16-14----16p14-|
G|-------------------------------------------------16-14-13----------------|
D|-------------------------------------------------------------------------|
A|-------------------------------------------------------------------------|
E|-------------------------------------------------------------------------|

E|------------------------------------------------------------------------|
B|-13h14h16p14p13h14p13----------14p12------------------------------------|
G|----------------------12h14h15-------14h15~-14h15p14-12h14p12-10h11p10--|
D|------------------------------------------------------------------------|
A|------------------------------------------------------------------------|
E|------------------------------------------------------------------------|

E|-----------------------------|
B|-----------------------------|
G|-8h10p8-7h8p7-5h7p5-4h5p4-5~-|
D|-----------------------------|
A|-----------------------------|
E|-----------------------------|

Main Riff/Chorus
E|-------------------------------------------------------------|
B|-------------------------------------------------------------|
G|-------------------------------------------------------------|
D|-----2p0-------------2p0-------------2p0---------------------|
A|-2h3-----2h3-----2h3-----2h3-----2h3-----2h3p2---------------|
E|-------------000-------------000---------------0h2h3p2p0h1p0-|
PM             ***             *** 

Verses
E|---------------------0-------------------------0-----------------|
B|-----------------------0-------------------------0---------------|
G|-----0---------------------------------------0-------------------|
D|---4---4-----0-----0---------0---------2---2-----------3-----2-2-|
A|-2---------4-----2---------4---4-----2---4-----------3-----2---2-|
E|---------2-----3---------5-------5\3---------------1-----0-----0-|
            
Submit corrections

comments powered by Disqus
↑ Back to top | Washya Tabs for Angel Of Mercy. Lyrics for acoustic guitar and electric guitar. 1 Tablatures and chords are parodies/interpretations of the original songs. You may use it for private study, scholarship, research or language learning purposes only