>
 >
A New World

A New World Guitar Tabs

Washya - A New World chords, tabs, tablatures, lyrics

Guitar lessons | Add/correct | Request | Top 50 tabs Artists:  A B C D E F G H I J K L M N O P Q R S T U V W X Y Z 0-9

A New World Guitar Tabs – Washya

CD, Sheet music, Poster

Do you like A New World? Share with your friends now
Tabs
-----------------------------------------------------------------------------
-----------------------------------------------------------------------------
Tuning: Standard (ebgDAE)
Intro
e|---------------------------------------------|
b|---------------------------------------------|
g|---------------------------------------------|
D|---5-7-9-7-5---------10-9-7------------------|
A|-7-----------7-7-7-7--------9-9-9-10-9-9-7-9-|
E|-------------5-------------------------7-5-7-|

Verses
e|-------------------------------------------|
b|-------------------------------------------|
g|-------------------------------------------|
D|-------------------------3-2h3p2-0---------|
A|---------3-------4-------1---------3p2p0-2-|
E|-0-00000-1-00000-2-00000-----------------0-|
pm . .....   .....   ..... 

Chorus
e|-----------------------------------------------|
b|-----------------------------------------------|
g|-----------------------------------------------|
D|----------------4-5-4-3----1---2-4h5p4-2-------|
A|-----4-5-4-3----2-3-2-1----2---3---------5p4-2-|
E|-000-2-3-2-1-00---------00---0---------------0-|
pm ...         ..         ..   . 

Interlude
e|----15-14----------------------------------------------|
b|----------12-15-14--------------12-13p12----12---------|
g|-12----------------12-----12-12----------14----15-14---|
D|-------------------------------------------------------|
A|-------------------------------------------------------|
E|-------------------------------------------------------|x 15

Guitar Solo
e|---------------------------------------------------------------|
b|---------------------------------------------------------------|
g|-----------------------------------------------------------17~-|
D|-----/12p10p9h10h12p10p9h10h12--15p13p12h13h15p13p12h13h15-----|
A|-5-3-----------------------------------------------------------|
E|-3-1-----------------------------------------------------------|

e|--------------------------------------13h16p13h16p13h16p13h16p13t19--|
b|-17-16-------17-16-------16-17-19------------------------------------|
g|-------14----------14-------------18~--------------------------------|
D|----------15----------15---------------------------------------------|
A|---------------------------------------------------------------------|
E|---------------------------------------------------------------------|

e|-13t19p13t19p13t19p13t20p13t20p13t20-22b-22-21-------22-21-------|
b|-----------------------------------------------22-21-------22-21-|
g|-----------------------------------------------------------------|
D|-----------------------------------------------------------------|
A|-----------------------------------------------------------------|
E|-----------------------------------------------------------------|

e|--------------19----------19----------19----------20----------20--|
b|-19h21h22p19~----17-15-17----17-15-17----17-15-17----18-16-18-----|
g|------------------------------------------------------------------|
D|------------------------------------------------------------------|
A|------------------------------------------------------------------|
E|------------------------------------------------------------------|

e|-------------------------------------------18h20p18p17-------15b-|
b|-18-16-18-19-18-16----------------------18-------------15-17-17b-|
g|-------------------18-16----------19-18--------------------------|
D|-------------------------18-19-21--------------------------------|
A|-----------------------------------------------------------------|
E|-----------------------------------------------------------------|

e|-17b-19b~-|
b|-19b-21b~-|
g|----------|
D|----------|
A|----------|
E|----------|





Comments


Popular Washya tabs & chords
Alterations Tabs
Confusion Bass In The Place London Tabs
Demonade Tabs
Drug Haste Tabs
Icy Reception Tabs
Legionaire Tabs
Star Wars - Emperors Theme Tabs
Strangled To Death Tabs
Stupidity Tabs
Tremillio Tabs


Song lyrics



↑ Back to top | Tablatures and chords are parodies/interpretations of the original songs. You may use it for private study, scholarship, research or language learning purposes only
© 2014 AZChords.com Contact us | Privacy policy | DMCA | Add/correct tabs | Request tabs | Top 50 tabs