» » »

Washya, A New Level Tabs (ver.1)

Artists:  A B C D E F G H I J K L M N O P Q R S T U V W X Y Z # 

A New Level Tabs (ver.1)

Washya Tabs
Rating:
0/5 (0 votes)
A New Level lessons Tabs too difficult? Try these video lessons and learn fast
                -----------------------------------------------------------------------------
                  A New Level - Pantera
-----------------------------------------------------------------------------
Tuning: Standard (EBGDAE)
Intro
E|------------------------------|
B|------------------------------|
G|------------------------------|
D|-------------------------3333-|
A|-2-3-4-2-3-4-5-2-3-4-5-6-1111-|
E|-0-1-2-0-1-2-3-0-1-2-3-4------|

Part Two (Heavy Palm Mute)
E|------------------------------|
B|------------------------------|
G|------------------------------|
D|-------------------------3333-|
A|-2-3-4-2-3-4-5-2-3-4-5-6-1111-|
E|-0-1-2-0-1-2-3-0-1-2-3-4------|
PM * * * * * * * * * * * * 

Part Three
E|-----------------------------------------------------|
B|-----------------------------------------------------|
G|-----------------------------------------------------|
D|-------------3-2-------------3-2-------------3-2-6-5-|
A|-00-00-00-00-1-0-00-00-00-00-1-0-00-00-00-00-1-0-4-3-|
PM ** ** ** **     ** ** ** **     ** ** ** ** 

Part 4
E|----------------------------------------------------|
B|----------------------------------------------------|
G|----------------------------------------------------|
D|----------------------------------------------------|
A|----------------------------------------------------|
E|-00-00-00-00-00-00-00-00-00-00-00-00-00/12-12-12-12-|
PM ** ** ** ** ** ** ** ** ** ** ** ** ** 

Part Three 
E|----------------------------------------------------|
B|----------------------------------------------------|
G|----------------------------------------------------|
D|----------------------------------------------------|
A|----------------------------------------------------|
E|-11-11-11-11-11-11-11-11-11-11-11-11-11/13-13-13-13-|
   ^ these are one's
PM ** ** ** ** ** ** ** ** ** ** ** ** ** 

Chorus
E|-----------------------------------------------------------|
B|-----------------------------------------------------------|
G|-----------------------------------------------------------|
D|-------------------------3333-------------------------3333-|
A|-2-3-4-2-3-4-5-2-3-4-5-6-1111-2-3-4-2-3-4-5-2-3-4-5-6-1111-|
E|-0-1-2-0-1-2-3-0-1-2-3-4------0-1-2-0-1-2-3-0-1-2-3-4------|

Part four
E|---------------------------------|
B|---------------------------------|
G|---------------------------------|
D|---------------------------------|
A|---------------------------------|
E|-0-3h4h6-4h5h7-5h6h8-6h7h9-7p6h9-|
PM * 

Guitar Solo
E|------------------------------------------------------------|
B|-------------------------------8-6-8-8br-6-8-6-8br-6-8-6-8b-|
G|-------------------5-7-5-6-7-6------------------------------|
D|-----3-5-3-5/7-7-7------------------------------------------|
A|-5-5--------------------------------------------------------|
E|------------------------------------------------------------|
PM * * * * * * * * * * * * 

E|----8b-5/13~--|
B|-6b-----------|
G|--------------|
D|--------------|
A|--------------|
E|--------------|

E|-15-15-15-13----16-16-16-16-13----15-15-15-13----16-16-13----15-15-13----|
B|-------------15----------------15-------------15----------15----------15-|
G|-------------------------------------------------------------------------|
D|-------------------------------------------------------------------------|
A|-------------------------------------------------------------------------|
E|-------------------------------------------------------------------------|

E|-15-13----13--------------13-12----12-------------------------------------|
B|-------15----15-15-13-----------15----15-13-15-13-12----12----------12----|
G|-----------------------14----------------------------14----14-13-14----14-|
D|--------------------------------------------------------------------------|
A|--------------------------------------------------------------------------|
E|--------------------------------------------------------------------------|

E|----------------------------------------------------------------|
B|-12-------------------------------------------------------------|
G|----14-13-14-13-12----12----------------------------------------|
D|-------------------15----15-14-15-14-12-14-12----12-----12------|
A|----------------------------------------------15----15b----15b~-|
E|----------------------------------------------------------------|

E|---------------------------------------12-13-12----------------12-13-12-|
B|-13-15-15b~~-15b-15br-13-15b--13-15-15----------16-15-13-15-15----------|
G|------------------------------------------------------------------------|
D|------------------------------------------------------------------------|
A|------------------------------------------------------------------------|
E|------------------------------------------------------------------------|

E|-------------17b-18-16~-15-13-----------------------------------|
B|-16-15-13-13------------------15-13-10----------13--------------|
G|---------------------------------------13-12-12-----------------|
D|---------------------------------------------------12-12--------|
A|---------------------------------------------------------12/10~-|
E|----------------------------------------------------------------|

E|-----------------------------------------------|
B|-----------------------------------------------|
G|----------------------------------------14-----|
D|-10-12-12-12-12-12-12-12-12-12-14-14-15-14-14~-|
A|-10-12-12-12-12-12-12-12-12-12-14-14-15--------|
E|-----------------------------------------------|
            
Submit corrections

comments powered by Disqus
↑ Back to top | Washya Tabs for A New Level. Lyrics for acoustic guitar and electric guitar. Tablatures and chords are parodies/interpretations of the original songs. You may use it for private study, scholarship, research or language learning purposes only