» » »

Ambers Tabs (ver.1)

Artists:  A B C D E F G H I J K L M N O P Q R S T U V W X Y Z # 

Ambers Tabs (ver.1)

Washya
Rating:
0/5 (0 votes)

Hard to play? Try these video lessons and learn fast.
                -----------------------------------------------------------------------------
-----------------------------------------------------------------------------
Tuning: Drop C (DAFCGC)
Intro
D|-------------------------------------------------------------|
A|--------------------------------------10---------9-----------|
F|-----7-7---------------9-9---------------10--------10--------|
C|---------7-7-----5---------9-9-----7----------10----------10-|
G|---5-----------5-----7-----------7----------8-----------8----|
C|-5-----------5-----7-----------7----------------------8------|
PM * *         * * * *       * * * *       ** * **      * *   

Verses
D|-----------------------------------------------------------------|
A|-----------------------------------------------------------------|
F|-----------------------------------------------------------------|
C|-----------------------------------------------------------------|
G|---------------------3-------------------------------5-----------|
C|-000-1*-000-1*-000-5---5-6-5-3-1-000-1*-000-1*-000-7---7-8-7-5-3-|
PM ***    ***    ***               ***    ***    *** 

Verses 2
D|-----------------------------------------------------------------|
A|-----------------------------------------------------------------|
F|-----------------------------------------------------------------|
C|---------------------5-------------------------------------------|
G|-------------------7---7-5-----------------------5-3---3---------|
C|-000-1*-000-1*-000---------7-6-5-3-000-1*-000-1*-----5---5-4-3-1-|
PM ***    ***    *** 

Chorus
D|--------------------------------------------------------------------------|
A|--------------------------------------------------------------------------|
F|-------5-------3--------------------3-------7-------77-------44-----------|
C|-------3-------1--------------------3-------5-------55-------22-----------|
G|-------3-------1----3---5-5---------1-------5-------55-------22---2-------|
C|-33333-3-11111-1-11---1-----1-1-1-3---33333-5-55555-55-22222-22-4---4-3-1-|
PM *****   *****   **   *     * * *     *****   *****    ***** 
            
Hard to play? Try these video lessons and learn fast. | Correct




comments powered by Disqus
↑ Back to top | Tablatures and chords are parodies/interpretations of the original songs. You may use it for private study, scholarship, research or language learning purposes only