» » »

Alone Tabs (ver.1)

Artists:  A B C D E F G H I J K L M N O P Q R S T U V W X Y Z # 

Alone Tabs (ver.1)

Washya
Rating:
0/5 (0 votes)

Hard to play? Try these video lessons and learn fast.
                -----------------------------------------------------------------------------
----------------------------------------------------------------------------
Tuning: Standard (EBGDAE)
Intro
E|-----------------------------------|
B|-----------------------------------|
G|-----------------------------------|
D|-----3-----3-----3-----------------|
A|-3-5-1-3-5-1-3-5-1-333/555/666-222-|
E|-1-3---1-3---1-3---111/333/444-000-|

Verses
E|-----------------------------------------------------------|
B|-----------------------------------------------------------|
G|-----------------------------------------------------------|
D|-----------------------------------------------------------|
A|-----------------------------------------------------------|
E|-0-0-3b-00--0-0-3b-00--0-3b-00-1-00-3-00-4-00-3-00-1h3p1p0-|

Chorus
E|----------------------|
B|----------------------|
G|----------------------|
D|---3-------55---------|
A|-5-1-4-3-2-33-5-4-3-2-|
E|-3---2-1-0----3-2-1-0-|

Solo
E|---------12----------------12----------------12----------------12~-|
B|-12b-13~----15-13-12-13-15----15-13-12-13-15----15----------15-----|
G|-12b-----------------------------------------------13-12-13--------|
D|-------------------------------------------------------------------|
A|-------------------------------------------------------------------|
E|-------------------------------------------------------------------|

E|-12b-12h16p1212h16p1212h15p1212h15p1212-12b-12-------14-12-------14-12h14-|
B|-----------------------------------------------14-15-------14-15----------|
G|--------------------------------------------------------------------------|
D|--------------------------------------------------------------------------|
A|--------------------------------------------------------------------------|
E|--------------------------------------------------------------------------|

E|----14h15h16~-------------------------------------------|
B|-12-----------2---------3-6p5---------------------------|
G|----------------3-2---2-------7h8p5---------------------|
D|--------------------4---------------5h6p3---------------|
A|------------------------------------------3h4p1-3-3bp1--|
E|--------------------------------------------------------|

E|--------------------------------------------------------17~-|
B|-----15-14-----17-16-----15-14-----17-16----15p14h15p14-----|
G|-/12-------/14-------/12-------/14-------12-----------------|
D|------------------------------------------------------------|
A|------------------------------------------------------------|
E|------------------------------------------------------------|
            
Hard to play? Try these video lessons and learn fast. | Correct




comments powered by Disqus
↑ Back to top | Tablatures and chords are parodies/interpretations of the original songs. You may use it for private study, scholarship, research or language learning purposes only