>
 >
Alleycat Blues

Alleycat Blues Guitar Tabs

Washya - Alleycat Blues chords, tabs, tablatures, lyrics

Guitar lessons | Add/correct | Request | Top 50 tabs Artists:  A B C D E F G H I J K L M N O P Q R S T U V W X Y Z 0-9

Alleycat Blues Guitar Tabs – Washya

CD, Sheet music, Poster

Do you like Alleycat Blues? Share with your friends now
Tabs
-----------------------------------------------------------------------------
-----------------------------------------------------------------------------
Tuning: Standard (ebgDAE)
Intro
e|----------------------------------------------------------------------|
b|----------------------------------------------------------------------|
g|----------------------------------------------------------------------|
D|-----------------------------------------------2--------------------0-|
A|-----------------2-3p2---------------------2h3------------------2h3---|
E|-0-0-0-0-0-0-2h3-------3-0-0-0-0-0-0-0-2h3------0-0-0-0-0-0-2h3-------|
PM * * * * * *             * * * * * * *          * * * * * * 

Verses
e|----------------------------------------------------------------------|
b|----------------------------------------------------------------------|
g|--------2---5\4---2---2-4-2-------------------------------------------|
D|----2/4---4-----4---4-------4-------------------------2-4-5---2-5\4---|
A|-22---------------------------------2---2/4-44444-2/4-------4-------2-|
E|-00---------------------------0-2/4---4---2-22222-------------------0-|
PM **                           *             *****   

Chorus
e|--------------------------------------------------------------------------|
b|--------------------------------------------------------------------------|
g|--------------------------------------------------------------------------|
D|-------6-5-------------------------------------------2p0-----------3p2-65-|
A|-5-5/7-----5h7p5-4-44-4-----2-5-4-22-2-2-2-2-2-2-2p0-----3-555-3/5--------|
E|-3---------------2-22-2-2/4-------00-0-0-0-0-0-0-----------333------------|
PM                 * ** *           ** * * * * * *           *** 
e|-------------------------------------------------------------------------|
b|-------------------------------------------------------------------------|
g|-------------------------------------------------------------------------|
D|------------------------------3-1-33-3-3-3-3-----------------------------|
A|-3/5-------33-3-3-3-3---3-1-3-----11-1-1-1-1-1-4p3p1h3h4p3-555-5-5-7-5-7-|
E|-----6-5-3-11-1-1-1-1-1------------------------------------333-3-3-5-3-5-|
PM     * * *            * * * * * *                                        
e|------------------------------------------------------------------------|
b|------------------------------------------------------------------------|
g|------------------------------------------------------------------------|
D|-5-55-5-5-5-5-5-5---------4-3-55-5-5-5-5-5-5----------------------------|
A|-3-33-3-3-3-3-3-3-----3-5-----33-3-3-3-3-3-3-55-5-5-5-5-5-5-5---------1-|
E|------------------3-5------------------------33-3-3-3-3-3-3-3-1-3-1-3---|
PM                  * * * * * *                                 * * * * * 





Comments


Popular Washya tabs & chords
Before I Die Tabs
Collesium Tabs
Fever Pitch Tabs
Flawed Reasoning Tabs
Lightning Strikes Twelve Tabs
Live In Fear Tabs
Love Stained Tabs
Mercury Rising 1 Tabs
Rock And Go Roll Tabs
Shred Tabs


Song lyrics



↑ Back to top | Tablatures and chords are parodies/interpretations of the original songs. You may use it for private study, scholarship, research or language learning purposes only
© 2014 AZChords.com Contact us | Privacy policy | DMCA | Add/correct tabs | Request tabs | Top 50 tabs