» » »

Alkalinity Tabs (ver.1)

Artists:  A B C D E F G H I J K L M N O P Q R S T U V W X Y Z # 

Alkalinity Tabs (ver.1)

Washya
Rating:
0/5 (0 votes)

Hard to play? Try these video lessons and learn fast.
                -----------------------------------------------------------------------------
-----------------------------------------------------------------------------
Tuning: Standard (EBGDAE)
Intro                    x3
E|-----------------------------|---------|
B|-----------------------------|---------|
G|-----------------------------|---------|
D|-----3-----5-3-------3-------|-4-3-----|
A|-----1-5-7-3-1-3-----1-5-7-8-|-2-1-3-5-|
E|-000---3-5-----1-000---3-5-6-|-----1-3-|
PM ***             ***         

Verses
E|-------------------------------------------------|
B|-------------------------------------------------|
G|-------------------------------------------------|
D|-------------------------------------------------|
A|---------------------------------------3p2p0-----|
E|-2-22-2-2-2-22-2-2-2-2222-2-2-2-22-2h3-------2h3-|
PM * ** * * * ** * * * **** * * * **                

Chorus
E|--------------------------------------------|
B|--------------------------------------------|
G|--------------------------------------------|
D|-5------------5-7-7/8---------3-7/8\7-------|
A|-3-7-10-5-2-3-3-5-5/6-7-7/8-5-1-5/6\5-5-7-2-|
E|---5-8--3-0-1---------5-5/6-3---------3-5-0-|
            
Hard to play? Try these video lessons and learn fast. | Correct




comments powered by Disqus
↑ Back to top | Tablatures and chords are parodies/interpretations of the original songs. You may use it for private study, scholarship, research or language learning purposes only