» » »

Washya, Air Assault Tabs (ver.1)

Artists:  A B C D E F G H I J K L M N O P Q R S T U V W X Y Z # 

Air Assault Tabs (ver.1)

Washya Tabs
 Rating:
4/5 (4 votes)
Air Assault lessons Tabs too difficult? Try these video lessons and learn fast
                -----------------------------------------------------------------------------
-----------------------------------------------------------------------------
Tuning: Drop D (DADGBE)
Intro                     x3     x2
E|-----------------------------|------------|
B|-----------------------------|------------|
G|---------5-------------------|------------|
D|---4h5h7-----------4---------|------------|
A|-----------3h5---2-----------|-0-5/6-3-00-|
D|-0-------------0-----3-0-1-0-|-0-5/6-3-00-|
PM *             *                    

Part 2
E|------------------------------------------------------|------------|
B|------------------------------------------------------|------------|
G|------------------------------------------------------|------------|
D|------------------------------------------------------|------------|
A|------------------------------------------------------|-11-11-3413-|
D|-3p2p0-0000000000000000-3p2p0-00000000000000000-3p2p0-|-11-11-3413-|
PM       ****************       *****************               ****

Verses
E|-----------------------------------------------|
B|-----------------------------------------------|
G|-----------------------------------------------|
D|-------4/5\4-------------------4/5\4-----------|
A|-0-0-0-2/3\2-0-0-0-5/6\5-0-0-0-2/3\2-666-111-3-|
D|-0-0-0-------0-0-0-5/6\5-0-0-0-------666-111-3-|
PM * * *       * * *       * * * 

Chorus
E|----------------------------------------------------------------------|
B|----------------------------------------------------------------------|
G|----------------------------------------------------------------------|
D|-------5-5/7-7-------5\4/5-----------------555/888-----------444\33/9-|
A|-3-3-3-3-3/5-5-5-5-5-3\2/3-6-5-3-5-3-0-0-0-333/666-0-2-3-2-0-222\11/7-|
D|-3-3-3---------5-5-5-------6-5-3-5-3-0-0-0---------0-2-3-2-0----------|
PM                           * * * * *    

E|-----------------|
B|-----------------|
G|-----------------|
D|-------2-3-5-----|
A|-1-3-4-0-1-3-3-5-|
D|-1-3-4-------3-5-|

Guitar Solo
E|--------------------------------------------8p7-10b~-10~-10b~~-|
B|--------------9-8-------------------------9--------------------|
G|-9b-9-7---9-7-----7----------------7-9-10----------------------|
D|--------9-----------9-8-7--------8-----------------------------|
A|--------------------------10-9-7-------------------------------|
D|---------------------------------------------------------------|

E|-10h15p10----10h15p10----------15p10h13p12p10----------13p10-15~-|
B|----------15----------15p13p12----------------13p12p10-----------|
G|-----------------------------------------------------------------|
D|-----------------------------------------------------------------|
A|-----------------------------------------------------------------|
D|-----------------------------------------------------------------|

E|-15h19p18p15h19p18p15h19p18h15-------------------17h20p19p17----18p17-|
B|-------------------------------19p18p15h19p18p15-------------18-------|
G|----------------------------------------------------------------------|
D|----------------------------------------------------------------------|
A|----------------------------------------------------------------------|
D|----------------------------------------------------------------------|

E|----18p17----18p17----16----16h18p16----17----17-/12t19p15t19p15p12t19b~-|
B|-15-------15-------15----15----------18----18----------------------------|
G|-------------------------------------------------------------------------|
D|-------------------------------------------------------------------------|
A|-------------------------------------------------------------------------|
D|-------------------------------------------------------------------------|
            
Submit corrections

comments powered by Disqus
↑ Back to top | Washya Tabs for Air Assault. Lyrics for acoustic guitar and electric guitar. Tablatures and chords are parodies/interpretations of the original songs. You may use it for private study, scholarship, research or language learning purposes only