» » »

Washya, Aeroplane Tabs (ver.1)

Artists:  A B C D E F G H I J K L M N O P Q R S T U V W X Y Z # 

Aeroplane Tabs (ver.1)

Washya Tabs
 Rating:
4/5 (4 votes)
Aeroplane lessons Tabs too difficult? Try these video lessons and learn fast
                -------------------------------------------------------------------------------
-------------------------------------------------------------------------------
Tuning: Standard (ebgDAE)
Intro
e|--------------------------------|
b|--------------------------------|
g|--------------------------------|
D|-4-4----------4-----------------|
A|---------4-4------4-5-4---------|
E|-----2-2--------2-------5-4-2-4-|


verses
e|-------------------------------|
b|-------------------------------|
g|-------------------------------|
D|-4-4---5-4-2-----------5-4-----|
A|-------------4---4-4-------2---|
E|-----2---------2-----2-------4-|
PM * * * * * * * * * * * * * * * 

Chorus
e|-------------------------------------------------------------------|
b|-------------------------------------------------------------------|
g|-------------------------------------------------------------------|
D|-------------55-55-33-33---------99999999b-------------------------|
A|-44-44-55-55-33-33-11-11-22-22-5-----------7-99-7-99-7-99-7-99-5-7-|
E|-22-22-33-33-------------00-00-3-----------5-77-5-77-5-77-5-77-3-5-|
PM                                           *    *    *    *    * * 

Solo
e|------------------------------------------------------14-15-15bh17p14~-|
b|--11-11b~--------------------11b-13b-15bh16p15p13~-12------------------|
g|---------------9-11br9h11p9~-------------------------------------------|
D|----------9-11---------------------------------------------------------|
A|-----------------------------------------------------------------------|
E|-----------------------------------------------------------------------|
            
Submit corrections

comments powered by Disqus
↑ Back to top | Washya Tabs for Aeroplane. Lyrics for acoustic guitar and electric guitar. Tablatures and chords are parodies/interpretations of the original songs. You may use it for private study, scholarship, research or language learning purposes only