» » »

Washya, Adverse Reaction Tabs (ver.1)

Artists:  A B C D E F G H I J K L M N O P Q R S T U V W X Y Z # 

Adverse Reaction Tabs (ver.1)

Washya Tabs
 Rating:
4/5 (4 votes)
Adverse Reaction lessons Tabs too difficult? Try these video lessons and learn fast
                -----------------------------------------------------------------------------
-----------------------------------------------------------------------------
Tuning: Drop B (BF#BEG#C#)
Intro
B|---------------------------------|
F#|--------------------------------|
B|---------------------------------|
E|---------------------------------|
G#|--------------------------------|
C#|-0000-000-0-00--0000-0-0--00000-|
pm  .... ... . ..  .... . .  ..... 

Main Riff
B|---------------------------------|
F#|--------------------------------|
B|---------------------------------|
E|---------------------------------|
G#|-6-3-5/8--6-3-5-1-0--6-3-5/8\6--|
C#|-6-3-5/8--6-3-5-1-0--6-3-5/8\6--|

Verses
B|----------------------------------------------------|
F#|---------------------------------------------------|
B|----------------------------------------------------|
E|---------------------------------------------10-7---|
G#|------10------10p9h10------7-10-7h9h10------8--5---|
C#|-0000----0000---------0000-------------0000--------|
pm  ....    ....         ....             .... 

Chorus
B|--------------------------|
F#|-------------------------|
B|----2-3-----2-3-----------|
E|----2-3-----2-3-----------|
G#|-0-0-1-6-0-0-1-3-0-5-6-3-|
C#|-0-----6-0-----3-0-5-6-3-|

Bridge
B|---------------------------------|
F#|--------------------------------|
B|--12\11--7\9--12/11--7/9-7-7-7/9-|
E|--12\11--7\9--12/11--7/9-7-7-7/9-|
G#|-10\9---5\7--10/9---5/7-5-5-5/7-|
C#|--------------------------------|

Guitar Solo
B|---15b--15b--17b-19~-19-------19-17-------17-15------------|
F#|--17b--17b--19b--------17-17-------15-15-------13-13b-----|
B|-----------------------------------------------------------|
E|-----------------------------------------------------------|
G#|----------------------------------------------------------|
C#|----------------------------------------------------------|

B|-----10h15p13p10h15/17p15p13h17p15p13p10h15/19h22p19p18h22p19p18-----|
F#|-12-----------------------------------------------------------------|
B|---------------------------------------------------------------------|
E|---------------------------------------------------------------------|
G#|--------------------------------------------------------------------|
C#|--------------------------------------------------------------------|

B|-18h22p19b-19b-19b-------19-19-------19-19-21-22-22b-----------|
F#|------------------17-17-------17-17---------------------------|
B|---------------------------------------------------------------|
E|---------------------------------------------------------------|
G#|--------------------------------------------------------------|
C#|--------------------------------------------------------------|

B|---------------------------------------------------------------21-22~----|
F#|--------------------------------------------------------------21-22~----|
B|------------------------------------------------16-19-20-19-20-----------|
E|---------------------------------15-18-19-18-19--------------------------|
G#|----------------12-15-16-15-16------------------------------------------|
C#|-12-15-16-15-16---------------------------------------------------------|
            
Submit corrections

comments powered by Disqus
↑ Back to top | Washya Tabs for Adverse Reaction. Lyrics for acoustic guitar and electric guitar. Tablatures and chords are parodies/interpretations of the original songs. You may use it for private study, scholarship, research or language learning purposes only