» » »

Acoustical Anomaly Tabs (ver.1)

Artists:  A B C D E F G H I J K L M N O P Q R S T U V W X Y Z # 

Acoustical Anomaly Tabs (ver.1)

Washya
Rating:
0/5 (0 votes)

Hard to play? Try these video lessons and learn fast.
                -----------------------------------------------------------------------------
-----------------------------------------------------------------------------
Tuning: Standard (EBGDAE)
Instrumental (Slowly Played)
E|-------------------------------------------------------------------------|
B|-------2-----------------------4---------------------------------3-------|
G|---2/4---4-2-------3-2-----4/6---6-4-6-----6-5-3-------6-5-3---5---5-3-5-|
D|-------------4-2-4-----4-2-------------3/5-------5-3-5-------3-----------|
A|-------------------------------------------------------------------------|
E|-0-----------------------------------------------------------------------|

e|----12-15-12-10-------12-15-12-10-------10-------------------------------|
b|-12-------------12-12-------------10-12----12-10-12-------------10-------|
g|-------------------------------------------------------12-13-12-------12-|
d|----------------------------------------------------10-------------13----|
a|-------------------------------------------------------------------------|
E|-------------------------------------------------------------------------|

E|----------------------------------------------3---3---5---5-3/5-6-5-----|
B|--------------8-7---------8-7---------------3-----3-5-----5-3/5-----3-5-|
G|----------7-9-----9-7-7-9-----9-----7-5---5-----5-------7---------------|
D|-10-12-10-----------------------7-5-----7-------------------------------|
A|------------------------------------------------------------------------|
E|------------------------------------------------------------------------|

E|--------------------------------------------------------------------|
B|-----------------------------------------------------8---8---8/10-8-|
G|-------2---------------------------6-----------5---7---7---7--------|
D|---2-4---5-4-2---2-------------5/7---7\5---8-7---7------------------|
A|-3-------------3---4-5-4-----5-----------7--------------------------|
E|-------------------------2/3----------------------------------------|
            
Hard to play? Try these video lessons and learn fast. | Correct




comments powered by Disqus
↑ Back to top | Tablatures and chords are parodies/interpretations of the original songs. You may use it for private study, scholarship, research or language learning purposes only